  0
SECTION
  2
HEADER
  9
$ACADVER
  1
AC1015
  9
$ACADMAINTVER
 70
     6
  9
$DWGCODEPAGE
  3
ANSI_1254
  9
$INSBASE
 10
0.0
 20
0.0
 30
0.0
  9
$EXTMIN
 10
0.0
 20
0.0
 30
0.0
  9
$EXTMAX
 10
210.0
 20
297.0
 30
0.0
  9
$LIMMIN
 10
0.0
 20
0.0
  9
$LIMMAX
 10
210.0
 20
297.0
  9
$ORTHOMODE
 70
     0
  9
$REGENMODE
 70
     1
  9
$FILLMODE
 70
     1
  9
$QTEXTMODE
 70
     0
  9
$MIRRTEXT
 70
     1
  9
$LTSCALE
 40
1.0
  9
$ATTMODE
 70
     1
  9
$TEXTSIZE
 40
3.5
  9
$TRACEWID
 40
1.0
  9
$TEXTSTYLE
  7
Standard
  9
$CLAYER
  8
0
  9
$CELTYPE
  6
ByLayer
  9
$CECOLOR
 62
   256
  9
$CELTSCALE
 40
1.0
  9
$DISPSILH
 70
     0
  9
$DIMSCALE
 40
1.0
  9
$DIMASZ
 40
3.0
  9
$DIMEXO
 40
1.0
  9
$DIMDLI
 40
3.75
  9
$DIMRND
 40
0.0
  9
$DIMDLE
 40
0.0
  9
$DIMEXE
 40
1.0
  9
$DIMTP
 40
0.0
  9
$DIMTM
 40
0.0
  9
$DIMTXT
 40
3.5
  9
$DIMCEN
 40
2.5
  9
$DIMTSZ
 40
0.0
  9
$DIMTOL
 70
     0
  9
$DIMLIM
 70
     0
  9
$DIMTIH
 70
     1
  9
$DIMTOH
 70
     1
  9
$DIMSE1
 70
     0
  9
$DIMSE2
 70
     0
  9
$DIMTAD
 70
     1
  9
$DIMZIN
 70
     0
  9
$DIMBLK
  1

  9
$DIMASO
 70
     1
  9
$DIMSHO
 70
     1
  9
$DIMPOST
  1

  9
$DIMAPOST
  1

  9
$DIMALT
 70
     0
  9
$DIMALTD
 70
     3
  9
$DIMALTF
 40
0.0393700787
  9
$DIMLFAC
 40
1.0
  9
$DIMTOFL
 70
     1
  9
$DIMTVP
 40
0.0
  9
$DIMTIX
 70
     0
  9
$DIMSOXD
 70
     0
  9
$DIMSAH
 70
     0
  9
$DIMBLK1
  1

  9
$DIMBLK2
  1

  9
$DIMSTYLE
  2
ISO-25
  9
$DIMCLRD
 70
     0
  9
$DIMCLRE
 70
     0
  9
$DIMCLRT
 70
     0
  9
$DIMTFAC
 40
1.0
  9
$DIMGAP
 40
1.524
  9
$DIMJUST
 70
     0
  9
$DIMSD1
 70
     0
  9
$DIMSD2
 70
     0
  9
$DIMTOLJ
 70
     0
  9
$DIMTZIN
 70
     0
  9
$DIMALTZ
 70
     0
  9
$DIMALTTZ
 70
     0
  9
$DIMUPT
 70
     0
  9
$DIMDEC
 70
     2
  9
$DIMTDEC
 70
     2
  9
$DIMALTU
 70
     2
  9
$DIMALTTD
 70
     3
  9
$DIMTXSTY
  7
Standard
  9
$DIMAUNIT
 70
     0
  9
$DIMADEC
 70
     2
  9
$DIMALTRND
 40
0.0
  9
$DIMAZIN
 70
     0
  9
$DIMDSEP
 70
    44
  9
$DIMATFIT
 70
     3
  9
$DIMFRAC
 70
     0
  9
$DIMLDRBLK
  1

  9
$DIMLUNIT
 70
     2
  9
$DIMLWD
 70
    -2
  9
$DIMLWE
 70
    -2
  9
$DIMTMOVE
 70
     0
  9
$LUNITS
 70
     2
  9
$LUPREC
 70
     2
  9
$SKETCHINC
 40
1.0
  9
$FILLETRAD
 40
10.0
  9
$AUNITS
 70
     0
  9
$AUPREC
 70
     2
  9
$MENU
  1
.
  9
$ELEVATION
 40
0.0
  9
$PELEVATION
 40
0.0
  9
$THICKNESS
 40
0.0
  9
$LIMCHECK
 70
     0
  9
$CHAMFERA
 40
0.0
  9
$CHAMFERB
 40
0.0
  9
$CHAMFERC
 40
0.0
  9
$CHAMFERD
 40
0.0
  9
$SKPOLY
 70
     0
  9
$TDCREATE
 40
2457780.529301424
  9
$TDUCREATE
 40
2457780.404301424
  9
$TDUPDATE
 40
2457780.529301783
  9
$TDUUPDATE
 40
2457780.404301783
  9
$TDINDWG
 40
0.0000000116
  9
$TDUSRTIMER
 40
0.0000000116
  9
$USRTIMER
 70
     1
  9
$ANGBASE
 50
0.0
  9
$ANGDIR
 70
     0
  9
$PDMODE
 70
     0
  9
$PDSIZE
 40
-1.0
  9
$PLINEWID
 40
0.0
  9
$SPLFRAME
 70
     0
  9
$SPLINETYPE
 70
     6
  9
$SPLINESEGS
 70
     8
  9
$HANDSEED
  5
42E
  9
$SURFTAB1
 70
     6
  9
$SURFTAB2
 70
     6
  9
$SURFTYPE
 70
     6
  9
$SURFU
 70
     6
  9
$SURFV
 70
     6
  9
$UCSBASE
  2

  9
$UCSNAME
  2

  9
$UCSORG
 10
0.0
 20
0.0
 30
0.0
  9
$UCSXDIR
 10
1.0
 20
0.0
 30
0.0
  9
$UCSYDIR
 10
0.0
 20
1.0
 30
0.0
  9
$UCSORTHOREF
  2

  9
$UCSORTHOVIEW
 70
     0
  9
$UCSORGTOP
 10
0.0
 20
0.0
 30
0.0
  9
$UCSORGBOTTOM
 10
0.0
 20
0.0
 30
0.0
  9
$UCSORGLEFT
 10
0.0
 20
0.0
 30
0.0
  9
$UCSORGRIGHT
 10
0.0
 20
0.0
 30
0.0
  9
$UCSORGFRONT
 10
0.0
 20
0.0
 30
0.0
  9
$UCSORGBACK
 10
0.0
 20
0.0
 30
0.0
  9
$PUCSBASE
  2

  9
$PUCSNAME
  2

  9
$PUCSORG
 10
0.0
 20
0.0
 30
0.0
  9
$PUCSXDIR
 10
1.0
 20
0.0
 30
0.0
  9
$PUCSYDIR
 10
0.0
 20
1.0
 30
0.0
  9
$PUCSORTHOREF
  2

  9
$PUCSORTHOVIEW
 70
     0
  9
$PUCSORGTOP
 10
0.0
 20
0.0
 30
0.0
  9
$PUCSORGBOTTOM
 10
0.0
 20
0.0
 30
0.0
  9
$PUCSORGLEFT
 10
0.0
 20
0.0
 30
0.0
  9
$PUCSORGRIGHT
 10
0.0
 20
0.0
 30
0.0
  9
$PUCSORGFRONT
 10
0.0
 20
0.0
 30
0.0
  9
$PUCSORGBACK
 10
0.0
 20
0.0
 30
0.0
  9
$USERI1
 70
     0
  9
$USERI2
 70
     0
  9
$USERI3
 70
     0
  9
$USERI4
 70
     0
  9
$USERI5
 70
     0
  9
$USERR1
 40
0.0
  9
$USERR2
 40
0.0
  9
$USERR3
 40
0.0
  9
$USERR4
 40
0.0
  9
$USERR5
 40
0.0
  9
$WORLDVIEW
 70
     1
  9
$SHADEDGE
 70
     3
  9
$SHADEDIF
 70
    70
  9
$TILEMODE
 70
     1
  9
$MAXACTVP
 70
    64
  9
$PINSBASE
 10
0.0
 20
0.0
 30
0.0
  9
$PLIMCHECK
 70
     0
  9
$PEXTMIN
 10
1.0000000000E+20
 20
1.0000000000E+20
 30
1.0000000000E+20
  9
$PEXTMAX
 10
-1.0000000000E+20
 20
-1.0000000000E+20
 30
-1.0000000000E+20
  9
$PLIMMIN
 10
0.0
 20
0.0
  9
$PLIMMAX
 10
420.0
 20
297.0
  9
$UNITMODE
 70
     0
  9
$VISRETAIN
 70
     1
  9
$PLINEGEN
 70
     0
  9
$PSLTSCALE
 70
     1
  9
$TREEDEPTH
 70
  3020
  9
$CMLSTYLE
  2
Standard
  9
$CMLJUST
 70
     0
  9
$CMLSCALE
 40
20.0
  9
$PROXYGRAPHICS
 70
     1
  9
$MEASUREMENT
 70
     1
  9
$CELWEIGHT
370
    -1
  9
$ENDCAPS
280
     0
  9
$JOINSTYLE
280
     0
  9
$LWDISPLAY
290
     1
  9
$INSUNITS
 70
     4
  9
$HYPERLINKBASE
  1

  9
$STYLESHEET
  1

  9
$XEDIT
290
     1
  9
$CEPSNTYPE
380
     0
  9
$PSTYLEMODE
290
     1
  9
$FINGERPRINTGUID
  2
{93A3674E-95E0-4B93-A283-CDE9464EABD1}
  9
$VERSIONGUID
  2
{FAEB1C32-E019-11D5-929B-00C0DF256EC4}
  9
$EXTNAMES
290
     1
  9
$PSVPSCALE
 40
0.0
  9
$OLESTARTUP
290
     0
  0
ENDSEC
  0
SECTION
  2
CLASSES
  0
CLASS
  1
ACDBDICTIONARYWDFLT
  2
AcDbDictionaryWithDefault
  3
ObjectDBX Classes
 90
        0
280
     0
281
     0
  0
CLASS
  1
VISUALSTYLE
  2
AcDbVisualStyle
  3
ObjectDBX Classes
 90
     4095
280
     0
281
     0
  0
CLASS
  1
MATERIAL
  2
AcDbMaterial
  3
ObjectDBX Classes
 90
     1153
280
     0
281
     0
  0
CLASS
  1
SCALE
  2
AcDbScale
  3
ObjectDBX Classes
 90
     1153
280
     0
281
     0
  0
CLASS
  1
TABLESTYLE
  2
AcDbTableStyle
  3
ObjectDBX Classes
 90
     4095
280
     0
281
     0
  0
CLASS
  1
MLEADERSTYLE
  2
AcDbMLeaderStyle
  3
ACDB_MLEADERSTYLE_CLASS
 90
     4095
280
     0
281
     0
  0
CLASS
  1
SUN
  2
AcDbSun
  3
SCENEOE
 90
     1153
280
     0
281
     0
  0
CLASS
  1
ACDBPLACEHOLDER
  2
AcDbPlaceHolder
  3
ObjectDBX Classes
 90
        0
280
     0
281
     0
  0
CLASS
  1
LAYOUT
  2
AcDbLayout
  3
ObjectDBX Classes
 90
        0
280
     0
281
     0
  0
ENDSEC
  0
SECTION
  2
TABLES
  0
TABLE
  2
VPORT
  5
8
330
0
100
AcDbSymbolTable
 70
     1
  0
VPORT
  5
29
330
8
100
AcDbSymbolTableRecord
100
AcDbViewportTableRecord
  2
*Active
 70
     0
 10
0.0
 20
0.0
 11
1.0
 21
1.0
 12
105.0
 22
148.5
 13
0.0
 23
0.0
 14
10.0
 24
10.0
 15
10.0
 25
10.0
 16
0.0
 26
0.0
 36
1.0
 17
0.0
 27
0.0
 37
0.0
 40
297.0
 41
0.7070707071
 42
50.0
 43
0.0
 44
0.0
 50
0.0
 51
0.0
 71
     0
 72
  2000
 73
     1
 74
     3
 75
     0
 76
     0
 77
     0
 78
     0
281
     0
 65
     1
110
0.0
120
0.0
130
0.0
111
1.0
121
0.0
131
0.0
112
0.0
122
1.0
132
0.0
 79
     0
146
0.0
  0
ENDTAB
  0
TABLE
  2
LTYPE
  5
5
330
0
100
AcDbSymbolTable
 70
     6
  0
LTYPE
  5
14
330
5
100
AcDbSymbolTableRecord
100
AcDbLinetypeTableRecord
  2
ByBlock
 70
     0
  3

 72
    65
 73
     0
 40
0.0
  0
LTYPE
  5
15
330
5
100
AcDbSymbolTableRecord
100
AcDbLinetypeTableRecord
  2
ByLayer
 70
     0
  3

 72
    65
 73
     0
 40
0.0
  0
LTYPE
  5
16
330
5
100
AcDbSymbolTableRecord
100
AcDbLinetypeTableRecord
  2
Continuous
 70
     0
  3
Solid line
 72
    65
 73
     0
 40
0.0
  0
LTYPE
  5
6E
330
5
100
AcDbSymbolTableRecord
100
AcDbLinetypeTableRecord
  2
HIDDEN
 70
     0
  3
Hidden __ __ __ __ __ __ __ __ __ __ __ __ __ __
 72
    65
 73
     2
 40
1.905
 49
1.27
 74
     0
 49
-0.635
 74
     0
  0
LTYPE
  5
6F
330
5
100
AcDbSymbolTableRecord
100
AcDbLinetypeTableRecord
  2
PHANTOM
 70
     0
  3
Phantom ______  __  __  ______  __  __  ______
 72
    65
 73
     6
 40
12.7
 49
6.35
 74
     0
 49
-1.27
 74
     0
 49
1.27
 74
     0
 49
-1.27
 74
     0
 49
1.27
 74
     0
 49
-1.27
 74
     0
  0
LTYPE
  5
70
330
5
100
AcDbSymbolTableRecord
100
AcDbLinetypeTableRecord
  2
CENTER
 70
     0
  3
Center ____ _ ____ _ ____ _ ____ _ ____ _ ____
 72
    65
 73
     4
 40
10.16
 49
6.35
 74
     0
 49
-1.27
 74
     0
 49
1.27
 74
     0
 49
-1.27
 74
     0
  0
LTYPE
  5
71
330
5
100
AcDbSymbolTableRecord
100
AcDbLinetypeTableRecord
  2
CENTERX2
 70
     0
  3
Center (2x) ________  __  ________  __  _____
 72
    65
 73
     4
 40
20.32
 49
12.7
 74
     0
 49
-2.54
 74
     0
 49
2.54
 74
     0
 49
-2.54
 74
     0
  0
LTYPE
  5
72
330
5
100
AcDbSymbolTableRecord
100
AcDbLinetypeTableRecord
  2
DOT2
 70
     0
  3
Dot (.5x) ........................................
 72
    65
 73
     2
 40
0.635
 49
0.0
 74
     0
 49
-0.635
 74
     0
  0
ENDTAB
  0
TABLE
  2
LAYER
  5
2
330
0
100
AcDbSymbolTable
 70
    15
  0
LAYER
  5
10
330
2
100
AcDbSymbolTableRecord
100
AcDbLayerTableRecord
  2
0
 70
     0
 62
     7
  6
Continuous
370
    -3
390
F
  0
LAYER
  5
73
330
2
100
AcDbSymbolTableRecord
100
AcDbLayerTableRecord
  2
FORMAT
 70
     0
 62
     7
  6
Continuous
370
    -3
390
F
  0
LAYER
  5
74
330
2
100
AcDbSymbolTableRecord
100
AcDbLayerTableRecord
  2
SLD-0
 70
     0
 62
   179
  6
Continuous
370
    -3
390
F
  0
LAYER
  5
75
330
2
100
AcDbSymbolTableRecord
100
AcDbLayerTableRecord
  2
ANA
 70
     0
 62
     3
  6
Continuous
370
    35
390
F
  0
LAYER
  5
76
330
2
100
AcDbSymbolTableRecord
100
AcDbLayerTableRecord
  2
ANTET1
 70
     0
 62
     4
  6
Continuous
370
    -3
390
F
  0
LAYER
  5
77
330
2
100
AcDbSymbolTableRecord
100
AcDbLayerTableRecord
  2
ANTET
 70
     0
 62
     3
  6
Continuous
370
    -3
390
F
  0
LAYER
  5
78
330
2
100
AcDbSymbolTableRecord
100
AcDbLayerTableRecord
  2
ANTET2
 70
     0
 62
     1
  6
Continuous
370
    25
390
F
  0
LAYER
  5
79
330
2
100
AcDbSymbolTableRecord
100
AcDbLayerTableRecord
  2
ANTET4
 70
     0
 62
   179
  6
Continuous
370
    25
390
F
  0
LAYER
  5
7A
330
2
100
AcDbSymbolTableRecord
100
AcDbLayerTableRecord
  2
ANTET3
 70
     0
 62
     1
  6
Continuous
370
    25
390
F
  0
LAYER
  5
7B
330
2
100
AcDbSymbolTableRecord
100
AcDbLayerTableRecord
  2
OLCU
 70
     0
 62
     1
  6
Continuous
370
    -3
390
F
  0
LAYER
  5
7C
330
2
100
AcDbSymbolTableRecord
100
AcDbLayerTableRecord
  2
GORUNMEZ
 70
     0
 62
    55
  6
HIDDEN
370
    -3
390
F
  0
LAYER
  5
7D
330
2
100
AcDbSymbolTableRecord
100
AcDbLayerTableRecord
  2
EKSEN
 70
     0
 62
     1
  6
CENTER
370
    -3
390
F
  0
LAYER
  5
7E
330
2
100
AcDbSymbolTableRecord
100
AcDbLayerTableRecord
  2
KESIT_1
 70
     0
 62
     4
  6
PHANTOM
370
    -3
390
F
  0
LAYER
  5
7F
330
2
100
AcDbSymbolTableRecord
100
AcDbLayerTableRecord
  2
KESIT_2
 70
     0
 62
     7
  6
PHANTOM
370
    -3
390
F
  0
LAYER
  5
80
330
2
100
AcDbSymbolTableRecord
100
AcDbLayerTableRecord
  2
3
 70
     0
 62
   174
  6
Continuous
370
    -3
390
F
  0
ENDTAB
  0
TABLE
  2
STYLE
  5
3
330
0
100
AcDbSymbolTable
 70
     1
  0
STYLE
  5
11
330
3
100
AcDbSymbolTableRecord
100
AcDbTextStyleTableRecord
  2
Standard
 70
     0
 40
0.0
 41
1.0
 50
0.0
 71
     0
 42
3.5
  3
txt
  4

  0
ENDTAB
  0
TABLE
  2
VIEW
  5
6
330
0
100
AcDbSymbolTable
 70
     0
  0
ENDTAB
  0
TABLE
  2
UCS
  5
7
330
0
100
AcDbSymbolTable
 70
     0
  0
ENDTAB
  0
TABLE
  2
APPID
  5
9
330
0
100
AcDbSymbolTable
 70
     1
  0
APPID
  5
12
330
9
100
AcDbSymbolTableRecord
100
AcDbRegAppTableRecord
  2
ACAD
 70
     0
  0
ENDTAB
  0
TABLE
  2
DIMSTYLE
  5
A
330
0
100
AcDbSymbolTable
 70
     1
100
AcDbDimStyleTable
  0
DIMSTYLE
105
27
330
A
100
AcDbSymbolTableRecord
100
AcDbDimStyleTableRecord
  2
ISO-25
 70
     0
 41
2.5
 42
0.625
 43
3.75
 44
1.25
 73
     0
 74
     0
 77
     1
 78
     8
140
2.5
141
2.5
143
0.0393700787
147
0.625
171
     3
172
     1
178
     0
271
     2
272
     2
274
     3
278
    44
283
     0
284
     8
340
11
  0
ENDTAB
  0
TABLE
  2
BLOCK_RECORD
  5
1
330
0
100
AcDbSymbolTable
 70
     1
  0
BLOCK_RECORD
  5
1F
330
1
100
AcDbSymbolTableRecord
100
AcDbBlockTableRecord
  2
*Model_Space
340
22
  0
BLOCK_RECORD
  5
1B
330
1
100
AcDbSymbolTableRecord
100
AcDbBlockTableRecord
  2
*Paper_Space
340
1E
  0
BLOCK_RECORD
  5
23
330
1
100
AcDbSymbolTableRecord
100
AcDbBlockTableRecord
  2
*Paper_Space0
340
26
  0
ENDTAB
  0
ENDSEC
  0
SECTION
  2
BLOCKS
  0
BLOCK
  5
20
330
1F
100
AcDbEntity
  8
0
100
AcDbBlockBegin
  2
*Model_Space
 70
     0
 10
0.0
 20
0.0
 30
0.0
  3
*Model_Space
  1

  0
ENDBLK
  5
21
330
1F
100
AcDbEntity
  8
0
100
AcDbBlockEnd
  0
BLOCK
  5
1C
330
1B
100
AcDbEntity
 67
     1
  8
0
100
AcDbBlockBegin
  2
*Paper_Space
 70
     0
 10
0.0
 20
0.0
 30
0.0
  3
*Paper_Space
  1

  0
ENDBLK
  5
1D
330
1B
100
AcDbEntity
 67
     1
  8
0
100
AcDbBlockEnd
  0
BLOCK
  5
24
330
23
100
AcDbEntity
  8
0
100
AcDbBlockBegin
  2
*Paper_Space0
 70
     0
 10
0.0
 20
0.0
 30
0.0
  3
*Paper_Space0
  1

  0
ENDBLK
  5
25
330
23
100
AcDbEntity
  8
0
100
AcDbBlockEnd
  0
ENDSEC
  0
SECTION
  2
ENTITIES
  0
LINE
  5
81
330
1F
100
AcDbEntity
  8
0
  6
Continuous
 62
     7
370
    25
100
AcDbLine
 10
149.3249909799
 20
179.1325712727
 30
0.0
 11
149.3247321595
 21
179.1316053748
 31
0.0
  0
ARC
  5
82
330
1F
100
AcDbEntity
  8
0
  6
Continuous
 62
     7
370
    25
100
AcDbCircle
 10
64.4702482637
 20
156.3858450976
 30
0.0
 40
0.5
100
AcDbArc
 50
90.0
 51
180.0
  0
LINE
  5
83
330
1F
100
AcDbEntity
  8
0
  6
Continuous
 62
     7
370
    25
100
AcDbLine
 10
63.9702499283
 20
156.3858453335
 30
0.0
 11
63.9702499283
 21
155.8858461829
 31
0.0
  0
ARC
  5
84
330
1F
100
AcDbEntity
  8
0
  6
Continuous
 62
     7
370
    25
100
AcDbCircle
 10
64.9702482637
 20
155.8858457011
 30
0.0
 40
1.0
100
AcDbArc
 50
180.0
 51
270.0
  0
LINE
  5
85
330
1F
100
AcDbEntity
  8
0
  6
Continuous
 62
     7
370
    25
100
AcDbLine
 10
64.9702519549
 20
154.885846019
 30
0.0
 11
80.9913173688
 21
154.885846019
 31
0.0
  0
ARC
  5
86
330
1F
100
AcDbEntity
  8
0
  6
Continuous
 62
     7
370
    25
100
AcDbCircle
 10
80.9913181519
 20
155.3858454089
 30
0.0
 40
0.4999999999999827
100
AcDbArc
 50
269.9999149257
 51
0.0000428832
  0
LINE
  5
87
330
1F
100
AcDbEntity
  8
0
  6
Continuous
 62
     7
370
    25
100
AcDbLine
 10
81.4913183821
 20
155.3858451696
 30
0.0
 11
81.4913183821
 21
156.3858453335
 31
0.0
  0
ARC
  5
88
330
1F
100
AcDbEntity
  8
0
  6
Continuous
 62
     7
370
    25
100
AcDbCircle
 10
80.9913181519
 20
156.3858454089
 30
0.0
 40
0.5
100
AcDbArc
 50
0.0
 51
90.0000850743
  0
LINE
  5
89
330
1F
100
AcDbEntity
  8
0
  6
Continuous
 62
     7
370
    25
100
AcDbLine
 10
80.9913173688
 20
156.8858444842
 30
0.0
 11
64.4702509416
 21
156.8858444842
 31
0.0
  0
ARC
  5
8A
330
1F
100
AcDbEntity
  8
0
  6
Continuous
 62
     7
370
    25
100
AcDbCircle
 10
80.7322763327
 20
165.8204750915
 30
0.0
 40
0.8711839476683736
100
AcDbArc
 50
8.235749742
 51
110.1673491642
  0
LINE
  5
8B
330
1F
100
AcDbEntity
  8
0
  6
Continuous
 62
     7
370
    25
100
AcDbLine
 10
80.4319277776
 20
166.6382465663
 30
0.0
 11
70.5901578439
 21
163.0235470982
 31
0.0
  0
ARC
  5
8C
330
1F
100
AcDbEntity
  8
0
  6
Continuous
 62
     7
370
    25
100
AcDbCircle
 10
70.1419651905
 20
164.2438443199
 30
0.0
 40
1.300000000000735
100
AcDbArc
 50
280.0
 51
290.1673491643
  0
LINE
  5
8D
330
1F
100
AcDbEntity
  8
0
  6
Continuous
 62
     7
370
    25
100
AcDbLine
 10
70.367705859
 20
162.9635941388
 30
0.0
 11
67.4750775469
 21
162.4535460176
 31
0.0
  0
ARC
  5
8E
330
1F
100
AcDbEntity
  8
0
  6
Continuous
 62
     7
370
    25
100
AcDbCircle
 10
67.2840659113
 20
163.5368342464
 30
0.0
 40
1.099999999999767
100
AcDbArc
 50
207.4593743757
 51
280.0
  0
LINE
  5
8F
330
1F
100
AcDbEntity
  8
0
  6
Continuous
 62
     7
370
    25
100
AcDbLine
 10
66.3079962505
 20
163.0296025576
 30
0.0
 11
64.4716665519
 21
166.5632639231
 31
0.0
  0
ARC
  5
90
330
1F
100
AcDbEntity
  8
0
  6
Continuous
 62
     7
370
    25
100
AcDbCircle
 10
63.921520205
 20
166.2773699622
 30
0.0
 40
0.6199999999959096
100
AcDbArc
 50
27.4593743758
 51
189.5825389803
  0
LINE
  5
91
330
1F
100
AcDbEntity
  8
0
  6
Continuous
 62
     7
370
    25
100
AcDbLine
 10
63.1702512873
 20
161.3590482773
 30
0.0
 11
63.1702512873
 21
158.0617677571
 31
0.0
  0
LINE
  5
92
330
1F
100
AcDbEntity
  8
0
  6
Continuous
 62
     7
370
    25
100
AcDbLine
 10
62.0117903126
 20
174.7462007368
 30
0.0
 11
61.9517684353
 21
174.7514515335
 31
0.0
  0
ARC
  5
93
330
1F
100
AcDbEntity
  8
0
  6
Continuous
 62
     7
370
    25
100
AcDbCircle
 10
62.510790313
 20
174.7777627954
 30
0.0
 40
0.500000213135995
100
AcDbArc
 50
183.61916468
 51
195.4791109394
  0
LINE
  5
94
330
1F
100
AcDbEntity
  8
0
  6
Continuous
 62
     7
370
    25
100
AcDbLine
 10
62.028926648
 20
174.6443191694
 30
0.0
 11
62.1026873959
 21
174.6378655696
 31
0.0
  0
LINE
  5
95
330
1F
100
AcDbEntity
  8
0
  6
Continuous
 62
     7
370
    25
100
AcDbLine
 10
62.1026873959
 20
174.6378655696
 30
0.0
 11
62.2290194405
 21
176.0817615466
 31
0.0
  0
ARC
  5
96
330
1F
100
AcDbEntity
  8
0
  6
Continuous
 62
     7
370
    25
100
AcDbCircle
 10
62.6066210579
 20
175.8731175802
 30
0.0
 40
0.4999998904561482
100
AcDbArc
 50
154.5201670844
 51
166.3801958245
  0
ARC
  5
97
330
1F
100
AcDbEntity
  8
0
  6
Continuous
 62
     7
370
    25
100
AcDbCircle
 10
62.7809325265
 20
177.8655085856
 30
0.0
 40
0.5000004696704189
100
AcDbArc
 50
183.6195842067
 51
195.4795474354
  0
LINE
  5
98
330
1F
100
AcDbEntity
  8
0
  6
Continuous
 62
     7
370
    25
100
AcDbLine
 10
62.2990697993
 20
177.7320611907
 30
0.0
 11
62.3728305472
 21
177.7256078238
 31
0.0
  0
LINE
  5
99
330
1F
100
AcDbEntity
  8
0
  6
Continuous
 62
     7
370
    25
100
AcDbLine
 10
62.3728305472
 20
177.7256078238
 30
0.0
 11
62.4991551412
 21
179.1695046157
 31
0.0
  0
LINE
  5
9A
330
1F
100
AcDbEntity
  8
0
  6
Continuous
 62
     7
370
    25
100
AcDbLine
 10
64.7887930644
 20
182.0259020349
 30
0.0
 11
61.7151976002
 21
180.907202888
 31
0.0
  0
LINE
  5
9B
330
1F
100
AcDbEntity
  8
0
  6
Continuous
 62
     7
370
    25
100
AcDbLine
 10
64.7887930644
 20
182.0259020349
 30
0.0
 11
64.8887947572
 21
181.9558812456
 31
0.0
  0
LINE
  5
9C
330
1F
100
AcDbEntity
  8
0
  6
Continuous
 62
     7
370
    25
100
AcDbLine
 10
73.4484315289
 20
185.1777521113
 30
0.0
 11
68.6536625398
 21
183.43259866
 31
0.0
  0
ARC
  5
9D
330
1F
100
AcDbEntity
  8
0
  6
Continuous
 62
     7
370
    25
100
AcDbCircle
 10
76.2709259136
 20
189.1893144281
 30
0.0
 40
0.5000002131359792
100
AcDbArc
 50
183.6191646803
 51
195.4791109399
  0
LINE
  5
9E
330
1F
100
AcDbEntity
  8
0
  6
Continuous
 62
     7
370
    25
100
AcDbLine
 10
75.7890612257
 20
189.0558710473
 30
0.0
 11
75.8628294242
 21
189.0494169818
 31
0.0
  0
ARC
  5
9F
330
1F
100
AcDbEntity
  8
0
  6
Continuous
 62
     7
370
    25
100
AcDbCircle
 10
76.3667566585
 20
190.2846692129
 30
0.0
 40
0.4999998904559373
100
AcDbArc
 50
154.5201670847
 51
166.3801958246
  0
LINE
  5
A0
330
1F
100
AcDbEntity
  8
0
  6
Continuous
 62
     7
370
    25
100
AcDbLine
 10
76.059204377
 20
192.1436133014
 30
0.0
 11
76.1329725755
 21
192.137159236
 31
0.0
  0
LINE
  5
A1
330
1F
100
AcDbEntity
  8
0
  6
Continuous
 62
     7
370
    25
100
AcDbLine
 10
76.0909363998
 20
193.4954028728
 30
0.0
 11
76.1509582771
 21
193.4901520761
 31
0.0
  0
LINE
  5
A2
330
1F
100
AcDbEntity
  8
0
  6
Continuous
 62
     7
370
    25
100
AcDbLine
 10
78.5489350928
 20
196.4374546113
 30
0.0
 11
78.648929335
 21
196.3674340548
 31
0.0
  0
LINE
  5
A3
330
1F
100
AcDbEntity
  8
0
  6
Continuous
 62
     7
370
    25
100
AcDbLine
 10
89.4837648047
 20
199.9486152234
 30
0.0
 11
86.9854472948
 21
199.5080959203
 31
0.0
  0
LINE
  5
A4
330
1F
100
AcDbEntity
  8
0
  6
Continuous
 62
     7
370
    25
100
AcDbLine
 10
89.4837648047
 20
199.9486152234
 30
0.0
 11
89.4837648047
 21
202.1231584402
 31
0.0
  0
ARC
  5
A5
330
1F
100
AcDbEntity
  8
0
  6
Continuous
 62
     7
370
    25
100
AcDbCircle
 10
90.5655639285
 20
201.3265561379
 30
0.0
 40
0.5000000000000148
100
AcDbArc
 50
9.9999999999
 51
24.9999544088
  0
LINE
  5
A6
330
1F
100
AcDbEntity
  8
0
  6
Continuous
 62
     7
370
    25
100
AcDbLine
 10
91.0579681767
 20
201.4133807423
 30
0.0
 11
91.9484243167
 21
196.3633474113
 31
0.0
  0
LINE
  5
A7
330
1F
100
AcDbEntity
  8
0
  6
Continuous
 62
     7
370
    25
100
AcDbLine
 10
94.8043696953
 20
196.8669284286
 30
0.0
 11
91.9484243167
 21
196.3633474113
 31
0.0
  0
LINE
  5
A8
330
1F
100
AcDbEntity
  8
0
  6
Continuous
 62
     7
370
    25
100
AcDbLine
 10
94.8043696953
 20
196.8669284286
 30
0.0
 11
93.9139135552
 21
201.9169580342
 31
0.0
  0
ARC
  5
A9
330
1F
100
AcDbEntity
  8
0
  6
Continuous
 62
     7
370
    25
100
AcDbCircle
 10
94.4063156644
 20
202.0037827975
 30
0.0
 40
0.4999999999999958
100
AcDbArc
 50
175.0000144918
 51
189.9999999999
  0
LINE
  5
AA
330
1F
100
AcDbEntity
  8
0
  6
Continuous
 62
     7
370
    25
100
AcDbLine
 10
93.9509727431
 20
202.5360416772
 30
0.0
 11
93.9082175864
 21
202.0473599585
 31
0.0
  0
ARC
  5
AB
330
1F
100
AcDbEntity
  8
0
  6
Continuous
 62
     7
370
    25
100
AcDbCircle
 10
94.4490695971
 20
202.4924639079
 30
0.0
 40
0.5000000000000284
100
AcDbArc
 50
90.0
 51
175.0000077739
  0
LINE
  5
AC
330
1F
100
AcDbEntity
  8
0
  6
Continuous
 62
     7
370
    25
100
AcDbLine
 10
94.7595097495
 20
201.64972806
 30
0.0
 11
94.7595097495
 21
202.2460613551
 31
0.0
  0
LINE
  5
AD
330
1F
100
AcDbEntity
  8
0
  6
Continuous
 62
     7
370
    25
100
AcDbLine
 10
97.7589458597
 20
200.9043216856
 30
0.0
 11
97.1920013798
 21
200.904319823
 31
0.0
  0
ARC
  5
AE
330
1F
100
AcDbEntity
  8
0
  6
Continuous
 62
     7
370
    25
100
AcDbCircle
 10
98.1587898313
 20
199.4061332142
 30
0.0
 40
0.5000003479539037
100
AcDbArc
 50
98.6200961649
 51
110.4800976145
  0
LINE
  5
AF
330
1F
100
AcDbEntity
  8
0
  6
Continuous
 62
     7
370
    25
100
AcDbLine
 10
97.9838490856
 20
199.8004846426
 30
0.0
 11
102.5328010691
 21
199.8004846426
 31
0.0
  0
LINE
  5
B0
330
1F
100
AcDbEntity
  8
0
  6
Continuous
 62
     7
370
    25
100
AcDbLine
 10
102.5328010691
 20
199.8004846426
 30
0.0
 11
102.5328010691
 21
199.8745303752
 31
0.0
  0
ARC
  5
B1
330
1F
100
AcDbEntity
  8
0
  6
Continuous
 62
     7
370
    25
100
AcDbCircle
 10
102.3578595987
 20
199.4061328662
 30
0.0
 40
0.500000000000051
100
AcDbArc
 50
69.5199944277
 51
81.3800875546
  0
LINE
  5
B2
330
1F
100
AcDbEntity
  8
0
  6
Continuous
 62
     7
370
    25
100
AcDbLine
 10
105.7595096899
 20
202.2460594924
 30
0.0
 11
105.7595096899
 21
201.6497355105
 31
0.0
  0
LINE
  5
B3
330
1F
100
AcDbEntity
  8
0
  6
Continuous
 62
     7
370
    25
100
AcDbLine
 10
110.9323062373
 20
201.6210768523
 30
0.0
 11
105.8142267538
 21
202.9924642446
 31
0.0
  0
LINE
  5
B4
330
1F
100
AcDbEntity
  8
0
  6
Continuous
 62
     7
370
    25
100
AcDbLine
 10
110.9323062373
 20
201.6210768523
 30
0.0
 11
111.0443741453
 21
201.4875214698
 31
0.0
  0
LINE
  5
B5
330
1F
100
AcDbEntity
  8
0
  6
Continuous
 62
     7
370
    25
100
AcDbLine
 10
114.7881567848
 20
200.4843771609
 30
0.0
 11
114.8816764725
 21
200.5628485384
 31
0.0
  0
LINE
  5
B6
330
1F
100
AcDbEntity
  8
0
  6
Continuous
 62
     7
370
    25
100
AcDbLine
 10
116.8843143059
 20
200.0262428226
 30
0.0
 11
114.8816764725
 21
200.5628485384
 31
0.0
  0
LINE
  5
B7
330
1F
100
AcDbEntity
  8
0
  6
Continuous
 62
     7
370
    25
100
AcDbLine
 10
116.9701449943
 20
200.0111069681
 30
0.0
 11
119.5391387118
 21
199.7863490285
 31
0.0
  0
LINE
  5
B8
330
1F
100
AcDbEntity
  8
0
  6
Continuous
 62
     7
370
    25
100
AcDbLine
 10
123.1618717683
 20
195.2645953896
 30
0.0
 11
122.5569293273
 21
198.6869227292
 31
0.0
  0
ARC
  5
B9
330
1F
100
AcDbEntity
  8
0
  6
Continuous
 62
     7
370
    25
100
AcDbCircle
 10
122.6695045555
 20
195.1775632332
 30
0.0
 40
0.5000000191981946
100
AcDbArc
 50
354.9999999999
 51
10.0242415109
  0
ARC
  5
BA
330
1F
100
AcDbEntity
  8
0
  6
Continuous
 62
     7
370
    25
100
AcDbCircle
 10
126.5547455996
 20
194.83859982
 30
0.0
 40
0.5000000000000004
100
AcDbArc
 50
160.0000144917
 51
174.9999999999
  0
ARC
  5
BB
330
1F
100
AcDbEntity
  8
0
  6
Continuous
 62
     7
370
    25
100
AcDbCircle
 10
126.7225227058
 20
195.2995639933
 30
0.0
 40
0.5000000000000511
100
AcDbArc
 50
54.9970533323
 51
160.000007774
  0
LINE
  5
BC
330
1F
100
AcDbEntity
  8
0
  6
Continuous
 62
     7
370
    25
100
AcDbLine
 10
135.1379555089
 20
192.0642431976
 30
0.0
 11
130.5681903286
 21
193.2905584725
 31
0.0
  0
LINE
  5
BD
330
1F
100
AcDbEntity
  8
0
  6
Continuous
 62
     7
370
    25
100
AcDbLine
 10
135.2500820903
 20
191.930615172
 30
0.0
 11
138.9938377214
 21
190.9259630518
 31
0.0
  0
LINE
  5
BE
330
1F
100
AcDbEntity
  8
0
  6
Continuous
 62
     7
370
    25
100
AcDbLine
 10
142.5607999226
 20
190.0722922908
 30
0.0
 11
139.0873294694
 21
191.0044120776
 31
0.0
  0
LINE
  5
BF
330
1F
100
AcDbEntity
  8
0
  6
Continuous
 62
     7
370
    25
100
AcDbLine
 10
141.7514470776
 20
188.289683141
 30
0.0
 11
141.6774004137
 21
188.2896840723
 31
0.0
  0
LINE
  5
C0
330
1F
100
AcDbEntity
  8
0
  6
Continuous
 62
     7
370
    25
100
AcDbLine
 10
141.6774004137
 20
188.2896840723
 30
0.0
 11
141.6774008793
 21
186.8402732687
 31
0.0
  0
LINE
  5
C1
330
1F
100
AcDbEntity
  8
0
  6
Continuous
 62
     7
370
    25
100
AcDbLine
 10
141.6774008793
 20
186.8402732687
 30
0.0
 11
141.751446612
 21
186.8402723374
 31
0.0
  0
LINE
  5
C2
330
1F
100
AcDbEntity
  8
0
  6
Continuous
 62
     7
370
    25
100
AcDbLine
 10
141.8376521578
 20
186.9402712362
 30
0.0
 11
141.7774007095
 21
186.9402721675
 31
0.0
  0
LINE
  5
C3
330
1F
100
AcDbEntity
  8
0
  6
Continuous
 62
     7
370
    25
100
AcDbLine
 10
141.7773997781
 20
185.090144925
 30
0.0
 11
141.8376526234
 21
185.0901444594
 31
0.0
  0
LINE
  5
C4
330
1F
100
AcDbEntity
  8
0
  6
Continuous
 62
     7
370
    25
100
AcDbLine
 10
141.7514447493
 20
185.1901452208
 30
0.0
 11
141.6773994824
 21
185.1901461521
 31
0.0
  0
LINE
  5
C5
330
1F
100
AcDbEntity
  8
0
  6
Continuous
 62
     7
370
    25
100
AcDbLine
 10
141.6773994824
 20
185.1901461521
 30
0.0
 11
141.6774004137
 21
183.7407339515
 31
0.0
  0
LINE
  5
C6
330
1F
100
AcDbEntity
  8
0
  6
Continuous
 62
     7
370
    25
100
AcDbLine
 10
141.6774004137
 20
183.7407339515
 30
0.0
 11
141.7514475433
 21
183.7407341844
 31
0.0
  0
LINE
  5
C7
330
1F
100
AcDbEntity
  8
0
  6
Continuous
 62
     7
370
    25
100
AcDbLine
 10
141.8376516921
 20
183.8407344801
 30
0.0
 11
141.7774002438
 21
183.8407342473
 31
0.0
  0
LINE
  5
C8
330
1F
100
AcDbEntity
  8
0
  6
Continuous
 62
     7
370
    25
100
AcDbLine
 10
145.3129915425
 20
180.2065480259
 30
0.0
 11
149.9463769395
 21
178.9650361205
 31
0.0
  0
LINE
  5
C9
330
1F
100
AcDbEntity
  8
0
  6
Continuous
 62
     7
370
    25
100
AcDbLine
 10
149.9463769395
 20
178.9650361205
 30
0.0
 11
149.9466357308
 21
178.9660020184
 31
0.0
  0
LINE
  5
CA
330
1F
100
AcDbEntity
  8
0
  6
Continuous
 62
     7
370
    25
100
AcDbLine
 10
153.895744439
 20
177.9068064096
 30
0.0
 11
153.896002881
 21
177.9077721911
 31
0.0
  0
LINE
  5
CB
330
1F
100
AcDbEntity
  8
0
  6
Continuous
 62
     7
370
    25
100
AcDbLine
 10
153.895744439
 20
177.9068064096
 30
0.0
 11
157.2204361109
 21
177.015957717
 31
0.0
  0
LINE
  5
CC
330
1F
100
AcDbEntity
  8
0
  6
Continuous
 62
     7
370
    25
100
AcDbLine
 10
156.5856415217
 20
175.0897097552
 30
0.0
 11
156.64589297
 21
175.0897092896
 31
0.0
  0
LINE
  5
CD
330
1F
100
AcDbEntity
  8
0
  6
Continuous
 62
     7
370
    25
100
AcDbLine
 10
156.5596883556
 20
175.1897095854
 30
0.0
 11
156.4856416916
 21
175.1897095854
 31
0.0
  0
LINE
  5
CE
330
1F
100
AcDbEntity
  8
0
  6
Continuous
 62
     7
370
    25
100
AcDbLine
 10
156.4856416916
 20
175.1897095854
 30
0.0
 11
156.4856421573
 21
173.7402992474
 31
0.0
  0
LINE
  5
CF
330
1F
100
AcDbEntity
  8
0
  6
Continuous
 62
     7
370
    25
100
AcDbLine
 10
156.4856421573
 20
173.7402992474
 30
0.0
 11
156.5596878899
 21
173.7402983161
 31
0.0
  0
LINE
  5
D0
330
1F
100
AcDbEntity
  8
0
  6
Continuous
 62
     7
370
    25
100
AcDbLine
 10
156.64589297
 20
173.8402972149
 30
0.0
 11
156.5856419874
 21
173.8402981462
 31
0.0
  0
LINE
  5
D1
330
1F
100
AcDbEntity
  8
0
  6
Continuous
 62
     7
370
    25
100
AcDbLine
 10
156.5596860272
 20
172.0901716651
 30
0.0
 11
156.4856407603
 21
172.0901716651
 31
0.0
  0
LINE
  5
D2
330
1F
100
AcDbEntity
  8
0
  6
Continuous
 62
     7
370
    25
100
AcDbLine
 10
156.4856407603
 20
172.0901716651
 30
0.0
 11
156.4856416916
 21
170.6407599302
 31
0.0
  0
LINE
  5
D3
330
1F
100
AcDbEntity
  8
0
  6
Continuous
 62
     7
370
    25
100
AcDbLine
 10
156.4856416916
 20
170.6407599302
 30
0.0
 11
156.5596888212
 21
170.6407599302
 31
0.0
  0
LINE
  5
D4
330
1F
100
AcDbEntity
  8
0
  6
Continuous
 62
     7
370
    25
100
AcDbLine
 10
127.2186775131
 20
154.9180846812
 30
0.0
 11
153.1819187475
 21
158.1738617422
 31
0.0
  0
ARC
  5
D5
330
1F
100
AcDbEntity
  8
0
  6
Continuous
 62
     7
370
    25
100
AcDbCircle
 10
127.1564654731
 20
155.4141983441
 30
0.0
 40
0.5000000000000122
100
AcDbArc
 50
240.2780356727
 51
277.1475576667
  0
LINE
  5
D6
330
1F
100
AcDbEntity
  8
0
  6
Continuous
 62
     7
370
    25
100
AcDbLine
 10
126.9085694475
 20
154.9799785169
 30
0.0
 11
122.8387195987
 21
154.4696193339
 31
0.0
  0
ARC
  5
D7
330
1F
100
AcDbEntity
  8
0
  6
Continuous
 62
     7
370
    25
100
AcDbCircle
 10
122.4952453752
 20
157.2086594607
 30
0.0
 40
2.760491140196128
100
AcDbArc
 50
187.9487126177
 51
277.1475555155
  0
ARC
  5
D8
330
1F
100
AcDbEntity
  8
0
  6
Continuous
 62
     7
370
    25
100
AcDbCircle
 10
121.3993430174
 20
157.0556397886
 30
0.0
 40
1.653957364064294
100
AcDbArc
 50
179.9999819084
 51
187.9486827842
  0
LINE
  5
D9
330
1F
100
AcDbEntity
  8
0
  6
Continuous
 62
     7
370
    25
100
AcDbLine
 10
119.7453856839
 20
157.0556394907
 30
0.0
 11
119.7453856839
 21
157.3556408437
 31
0.0
  0
ARC
  5
DA
330
1F
100
AcDbEntity
  8
0
  6
Continuous
 62
     7
370
    25
100
AcDbCircle
 10
121.3993428945
 20
157.355641125
 30
0.0
 40
1.653957364064422
100
AcDbArc
 50
104.9999848554
 51
180.0000143814
  0
LINE
  5
DB
330
1F
100
AcDbEntity
  8
0
  6
Continuous
 62
     7
370
    25
100
AcDbLine
 10
120.9712669624
 20
158.9532409014
 30
0.0
 11
122.1230335904
 21
159.2618551256
 31
0.0
  0
ARC
  5
DC
330
1F
100
AcDbEntity
  8
0
  6
Continuous
 62
     7
370
    25
100
AcDbCircle
 10
122.0453857724
 20
159.5516316944
 30
0.0
 40
0.2999990937361616
100
AcDbArc
 50
285.0004569727
 51
0.0
  0
LINE
  5
DD
330
1F
100
AcDbEntity
  8
0
  6
Continuous
 62
     7
370
    25
100
AcDbLine
 10
122.3453849924
 20
159.5516324194
 30
0.0
 11
122.3453849924
 21
160.4159537854
 31
0.0
  0
ARC
  5
DE
330
1F
100
AcDbEntity
  8
0
  6
Continuous
 62
     7
370
    25
100
AcDbCircle
 10
122.0453861349
 20
160.4159523805
 30
0.0
 40
0.299998731254597
100
AcDbArc
 50
0.0001522819
 51
98.5249512069
  0
LINE
  5
DF
330
1F
100
AcDbEntity
  8
0
  6
Continuous
 62
     7
370
    25
100
AcDbLine
 10
122.0009148491
 20
160.7126359047
 30
0.0
 11
120.3028828276
 21
160.4581091704
 31
0.0
  0
ARC
  5
E0
330
1F
100
AcDbEntity
  8
0
  6
Continuous
 62
     7
370
    25
100
AcDbCircle
 10
120.1694676543
 20
161.3481650643
 30
0.0
 40
0.9000000611171427
100
AcDbArc
 50
270.0000528502
 51
278.5249496831
  0
ARC
  5
E1
330
1F
100
AcDbEntity
  8
0
  6
Continuous
 62
     7
370
    25
100
AcDbCircle
 10
84.8989086763
 20
160.748165844
 30
0.0
 40
0.4000010175431205
100
AcDbArc
 50
269.9999592133
 51
311.4098469855
  0
LINE
  5
E2
330
1F
100
AcDbEntity
  8
0
  6
Continuous
 62
     7
370
    25
100
AcDbLine
 10
84.7989067806
 20
160.3481665405
 30
0.0
 11
84.8989084733
 21
160.3481646778
 31
0.0
  0
LINE
  5
E3
330
1F
100
AcDbEntity
  8
0
  6
Continuous
 62
     7
370
    25
100
AcDbLine
 10
84.7598359359
 20
159.0159822406
 30
0.0
 11
84.7131282461
 21
159.0159822406
 31
0.0
  0
ARC
  5
E4
330
1F
100
AcDbEntity
  8
0
  6
Continuous
 62
     7
370
    25
100
AcDbCircle
 10
84.7598330723
 20
158.7159820851
 30
0.0
 40
0.3000000762444063
100
AcDbArc
 50
41.8103479913
 51
89.999446706
  0
ARC
  5
E5
330
1F
100
AcDbEntity
  8
0
  6
Continuous
 62
     7
370
    25
100
AcDbCircle
 10
88.4454509812
 20
158.8159818076
 30
0.0
 40
0.1000003566573028
100
AcDbArc
 50
353.6008232256
 51
89.9991913213
  0
LINE
  5
E6
330
1F
100
AcDbEntity
  8
0
  6
Continuous
 62
     7
370
    25
100
AcDbLine
 10
88.5448277367
 20
158.8048365118
 30
0.0
 11
88.504691459
 21
158.4469739499
 31
0.0
  0
ARC
  5
E7
330
1F
100
AcDbEntity
  8
0
  6
Continuous
 62
     7
370
    25
100
AcDbCircle
 10
80.5038706324
 20
160.6952387667
 30
0.0
 40
8.310706325697238
100
AcDbArc
 50
329.8095410359
 51
344.3044163263
  0
LINE
  5
E8
330
1F
100
AcDbEntity
  8
0
  6
Continuous
 62
     7
370
    25
100
AcDbLine
 10
87.8027610851
 20
156.5159846248
 30
0.0
 11
87.6872994376
 21
156.5159846248
 31
0.0
  0
ARC
  5
E9
330
1F
100
AcDbEntity
  8
0
  6
Continuous
 62
     7
370
    25
100
AcDbCircle
 10
80.5038706324
 20
160.6952387667
 30
0.0
 40
8.410706325697237
100
AcDbArc
 50
318.1567154055
 51
330.2050802305
  0
ARC
  5
EA
330
1F
100
AcDbEntity
  8
0
  6
Continuous
 62
     7
370
    25
100
AcDbCircle
 10
61.0811697736
 20
157.785844384
 30
0.0
 40
0.7500018324206921
100
AcDbArc
 50
5.0454863775
 51
179.9999016346
  0
ARC
  5
EB
330
1F
100
AcDbEntity
  8
0
  6
Continuous
 62
     7
370
    25
100
AcDbCircle
 10
62.4202490316
 20
158.4617682439
 30
0.0
 40
0.8500001774571334
100
AcDbArc
 50
225.8570376857
 51
331.9274164426
  0
LINE
  5
EC
330
1F
100
AcDbEntity
  8
0
  6
Continuous
 62
     7
370
    25
100
AcDbLine
 10
68.553660847
 20
183.2897838356
 30
0.0
 11
68.6536625398
 21
183.43259866
 31
0.0
  0
ARC
  5
ED
330
1F
100
AcDbEntity
  8
0
  6
Continuous
 62
     7
370
    25
100
AcDbCircle
 10
62.876763434
 20
178.9608646518
 30
0.0
 40
0.4999996530888154
100
AcDbArc
 50
154.5205676014
 51
166.3805567468
  0
LINE
  5
EE
330
1F
100
AcDbEntity
  8
0
  6
Continuous
 62
     7
370
    25
100
AcDbLine
 10
64.8887947572
 20
181.9558812456
 30
0.0
 11
68.553660847
 21
183.2897838356
 31
0.0
  0
LINE
  5
EF
330
1F
100
AcDbEntity
  8
0
  6
Continuous
 62
     7
370
    25
100
AcDbLine
 10
123.1676012648
 20
195.1339857804
 30
0.0
 11
122.7207545561
 21
190.0265075417
 31
0.0
  0
LINE
  5
F0
330
1F
100
AcDbEntity
  8
0
  6
Continuous
 62
     7
370
    25
100
AcDbLine
 10
111.0443741453
 20
201.4875214698
 30
0.0
 11
114.7881567848
 21
200.4843771609
 31
0.0
  0
LINE
  5
F1
330
1F
100
AcDbEntity
  8
0
  6
Continuous
 62
     7
370
    25
100
AcDbLine
 10
150.0587023583
 20
178.8324462866
 30
0.0
 11
153.802486453
 21
177.8293024434
 31
0.0
  0
LINE
  5
F2
330
1F
100
AcDbEntity
  8
0
  6
Continuous
 62
     7
370
    25
100
AcDbLine
 10
62.4991551412
 20
179.1695046157
 30
0.0
 11
62.4253943933
 21
179.1759579826
 31
0.0
  0
ARC
  5
F3
330
1F
100
AcDbEntity
  8
0
  6
Continuous
 62
     7
370
    25
100
AcDbCircle
 10
156.0912879399
 20
170.8156909463
 30
0.0
 40
0.5000002131360214
100
AcDbArc
 50
339.5211659267
 51
351.3811129748
  0
ARC
  5
F4
330
1F
100
AcDbEntity
  8
0
  6
Continuous
 62
     7
370
    25
100
AcDbCircle
 10
156.0912887777
 20
171.915230711
 30
0.0
 40
0.5000000000002821
100
AcDbArc
 50
8.6200070439
 51
20.4800443461
  0
LINE
  5
F5
330
1F
100
AcDbEntity
  8
0
  6
Continuous
 62
     7
370
    25
100
AcDbLine
 10
125.6097190452
 20
189.7737559082
 30
0.0
 11
122.7207545561
 21
190.0265075417
 31
0.0
  0
ARC
  5
F6
330
1F
100
AcDbEntity
  8
0
  6
Continuous
 62
     7
370
    25
100
AcDbCircle
 10
156.0912889204
 20
173.9152353246
 30
0.0
 40
0.5000004696704402
100
AcDbArc
 50
339.5204107097
 51
351.3803446289
  0
ARC
  5
F7
330
1F
100
AcDbEntity
  8
0
  6
Continuous
 62
     7
370
    25
100
AcDbCircle
 10
156.0912887777
 20
175.0147772264
 30
0.0
 40
0.499999525269019
100
AcDbArc
 50
8.6190945997
 51
20.4790675538
  0
LINE
  5
F8
330
1F
100
AcDbEntity
  8
0
  6
Continuous
 62
     7
370
    25
100
AcDbLine
 10
76.2592971695
 20
193.5810566099
 30
0.0
 11
76.185528971
 21
193.5875097441
 31
0.0
  0
LINE
  5
F9
330
1F
100
AcDbEntity
  8
0
  6
Continuous
 62
     7
370
    25
100
AcDbLine
 10
76.1329725755
 20
192.137159236
 30
0.0
 11
76.2592971695
 21
193.5810566099
 31
0.0
  0
LINE
  5
FA
330
1F
100
AcDbEntity
  8
0
  6
Continuous
 62
     7
370
    25
100
AcDbLine
 10
149.9466357308
 20
178.9660020184
 30
0.0
 11
150.0587023583
 21
178.8324462866
 31
0.0
  0
LINE
  5
FB
330
1F
100
AcDbEntity
  8
0
  6
Continuous
 62
     7
370
    25
100
AcDbLine
 10
75.9891540182
 20
190.4933134245
 30
0.0
 11
75.9153858197
 21
190.4997656273
 31
0.0
  0
LINE
  5
FC
330
1F
100
AcDbEntity
  8
0
  6
Continuous
 62
     7
370
    25
100
AcDbLine
 10
75.8628294242
 20
189.0494169818
 30
0.0
 11
75.9891540182
 21
190.4933134245
 31
0.0
  0
LINE
  5
FD
330
1F
100
AcDbEntity
  8
0
  6
Continuous
 62
     7
370
    25
100
AcDbLine
 10
153.802486453
 20
177.8293024434
 30
0.0
 11
153.896002881
 21
177.9077721911
 31
0.0
  0
ARC
  5
FE
330
1F
100
AcDbEntity
  8
0
  6
Continuous
 62
     7
370
    25
100
AcDbCircle
 10
141.2830467337
 20
183.9156649005
 30
0.0
 40
0.5000002131360024
100
AcDbArc
 50
339.5211659279
 51
351.3811129755
  0
ARC
  5
FF
330
1F
100
AcDbEntity
  8
0
  6
Continuous
 62
     7
370
    25
100
AcDbCircle
 10
141.2830475715
 20
185.0152046652
 30
0.0
 40
0.5000000000003116
100
AcDbArc
 50
8.6200070432
 51
20.4800443453
  0
LINE
  5
100
330
1F
100
AcDbEntity
  8
0
  6
Continuous
 62
     7
370
    25
100
AcDbLine
 10
97.9838490856
 20
199.8745303752
 30
0.0
 11
97.9838490856
 21
199.8004846426
 31
0.0
  0
ARC
  5
101
330
1F
100
AcDbEntity
  8
0
  6
Continuous
 62
     7
370
    25
100
AcDbCircle
 10
141.2830477143
 20
187.0152092788
 30
0.0
 40
0.500000469670419
100
AcDbArc
 50
339.5204107115
 51
351.3803446299
  0
ARC
  5
102
330
1F
100
AcDbEntity
  8
0
  6
Continuous
 62
     7
370
    25
100
AcDbCircle
 10
141.2830475715
 20
188.1147511806
 30
0.0
 40
0.4999995252690171
100
AcDbArc
 50
8.6190946007
 51
20.4790675548
  0
LINE
  5
103
330
1F
100
AcDbEntity
  8
0
  6
Continuous
 62
     7
370
    25
100
AcDbLine
 10
62.2819260133
 20
177.8339427581
 30
0.0
 11
62.221904136
 21
177.8391937876
 31
0.0
  0
LINE
  5
104
330
1F
100
AcDbEntity
  8
0
  6
Continuous
 62
     7
370
    25
100
AcDbLine
 10
62.330801822
 20
179.0838516934
 30
0.0
 11
62.3908236993
 21
179.0786005475
 31
0.0
  0
LINE
  5
105
330
1F
100
AcDbEntity
  8
0
  6
Continuous
 62
     7
370
    25
100
AcDbLine
 10
135.1379555089
 20
192.0642431976
 30
0.0
 11
135.2500820903
 21
191.930615172
 31
0.0
  0
LINE
  5
106
330
1F
100
AcDbEntity
  8
0
  6
Continuous
 62
     7
370
    25
100
AcDbLine
 10
62.0606586707
 20
175.9961073438
 30
0.0
 11
62.120680548
 21
175.9908565471
 31
0.0
  0
LINE
  5
107
330
1F
100
AcDbEntity
  8
0
  6
Continuous
 62
     7
370
    25
100
AcDbLine
 10
76.0420680416
 20
192.2454944031
 30
0.0
 11
75.9820461644
 21
192.2507451998
 31
0.0
  0
LINE
  5
108
330
1F
100
AcDbEntity
  8
0
  6
Continuous
 62
     7
370
    25
100
AcDbLine
 10
138.9938377214
 20
190.9259630518
 30
0.0
 11
139.0873294694
 21
191.0044120776
 31
0.0
  0
LINE
  5
109
330
1F
100
AcDbEntity
  8
0
  6
Continuous
 62
     7
370
    25
100
AcDbLine
 10
75.7719248904
 20
189.157752149
 30
0.0
 11
75.7119030131
 21
189.1630029457
 31
0.0
  0
LINE
  5
10A
330
1F
100
AcDbEntity
  8
0
  6
Continuous
 62
     7
370
    25
100
AcDbLine
 10
75.8207932485
 20
190.407658756
 30
0.0
 11
75.8808151258
 21
190.4024079593
 31
0.0
  0
LINE
  5
10B
330
1F
100
AcDbEntity
  8
0
  6
Continuous
 62
     7
370
    25
100
AcDbLine
 10
98.0838470531
 20
199.9004863354
 30
0.0
 11
98.0838470531
 21
199.960737318
 31
0.0
  0
LINE
  5
10C
330
1F
100
AcDbEntity
  8
0
  6
Continuous
 62
     7
370
    25
100
AcDbLine
 10
102.432795651
 20
199.960737318
 30
0.0
 11
102.4327993763
 21
199.9004844727
 31
0.0
  0
LINE
  5
10D
330
1F
100
AcDbEntity
  8
0
  6
Continuous
 62
     7
370
    25
100
AcDbLine
 10
141.7774002438
 20
188.1896833109
 30
0.0
 11
141.8376516921
 21
188.1896833109
 31
0.0
  0
ARC
  5
10E
330
1F
100
AcDbEntity
  8
0
  6
Continuous
 62
     7
370
    25
100
AcDbCircle
 10
94.9595109361
 20
202.246060631
 30
0.0
 40
0.2000005471314751
100
AcDbArc
 50
113.5781784218
 51
180.0000554992
  0
LINE
  5
10F
330
1F
100
AcDbEntity
  8
0
  6
Continuous
 62
     7
370
    25
100
AcDbLine
 10
98.0838470531
 20
199.960737318
 30
0.0
 11
97.7589458597
 21
200.9043216856
 31
0.0
  0
LINE
  5
110
330
1F
100
AcDbEntity
  8
0
  6
Continuous
 62
     7
370
    25
100
AcDbLine
 10
102.7576968444
 20
200.9043179603
 30
0.0
 11
102.432795651
 21
199.960737318
 31
0.0
  0
ARC
  5
111
330
1F
100
AcDbEntity
  8
0
  6
Continuous
 62
     7
370
    25
100
AcDbCircle
 10
105.5595113485
 20
202.2460602466
 30
0.0
 40
0.1999999999998051
100
AcDbArc
 50
359.9995429178
 51
66.4219390482
  0
LINE
  5
112
330
1F
100
AcDbEntity
  8
0
  6
Continuous
 62
     7
370
    25
100
AcDbLine
 10
60.3311702979
 20
157.785844818
 30
0.0
 11
60.3311702979
 21
155.0858456792
 31
0.0
  0
LINE
  5
113
330
1F
100
AcDbEntity
  8
0
  6
Continuous
 62
     7
370
    25
100
AcDbLine
 10
156.5856410561
 20
171.9901709037
 30
0.0
 11
156.6458939014
 21
171.9901699724
 31
0.0
  0
LINE
  5
114
330
1F
100
AcDbEntity
  8
0
  6
Continuous
 62
     7
370
    25
100
AcDbLine
 10
156.64589297
 20
170.7407606917
 30
0.0
 11
156.5856415217
 21
170.7407606917
 31
0.0
  0
ARC
  5
115
330
1F
100
AcDbEntity
  8
0
  6
Continuous
 62
     7
370
    25
100
AcDbCircle
 10
53.1702484721
 20
161.3590556488
 30
0.0
 40
10.00000011909989
100
AcDbArc
 50
359.9999600666
 51
9.5825246228
  0
LINE
  5
116
330
1F
100
AcDbEntity
  8
0
  6
Continuous
 62
     7
370
    25
100
AcDbLine
 10
91.0187185181
 20
201.5378650429
 30
0.0
 11
90.6275518609
 21
202.3767277749
 31
0.0
  0
LINE
  5
117
330
1F
100
AcDbEntity
  8
0
  6
Continuous
 62
     7
370
    25
100
AcDbLine
 10
78.648929335
 20
196.3674340548
 30
0.0
 11
82.3138028754
 21
197.7013357135
 31
0.0
  0
LINE
  5
118
330
1F
100
AcDbEntity
  8
0
  6
Continuous
 62
     7
370
    25
100
AcDbLine
 10
126.2526762111
 20
195.4705741407
 30
0.0
 11
126.0848984493
 21
195.0096095132
 31
0.0
  0
LINE
  5
119
330
1F
100
AcDbEntity
  8
0
  6
Continuous
 62
     7
370
    25
100
AcDbLine
 10
125.6097190452
 20
189.7737559082
 30
0.0
 11
126.0566477103
 21
194.8821775766
 31
0.0
  0
LINE
  5
11A
330
1F
100
AcDbEntity
  8
0
  6
Continuous
 62
     7
370
    25
100
AcDbLine
 10
103.3248871935
 20
200.9043179603
 30
0.0
 11
105.7595096899
 21
201.6497355105
 31
0.0
  0
LINE
  5
11B
330
1F
100
AcDbEntity
  8
0
  6
Continuous
 62
     7
370
    25
100
AcDbLine
 10
94.7595097495
 20
201.64972806
 30
0.0
 11
97.1920013798
 21
200.904319823
 31
0.0
  0
LINE
  5
11C
330
1F
100
AcDbEntity
  8
0
  6
Continuous
 62
     7
370
    25
100
AcDbLine
 10
62.2290194405
 20
176.0817615466
 30
0.0
 11
62.155251242
 21
176.0882142151
 31
0.0
  0
LINE
  5
11D
330
1F
100
AcDbEntity
  8
0
  6
Continuous
 62
     7
370
    25
100
AcDbLine
 10
75.1775101198
 20
193.9020862954
 30
0.0
 11
76.0909363998
 21
193.4954028728
 31
0.0
  0
LINE
  5
11E
330
1F
100
AcDbEntity
  8
0
  6
Continuous
 62
     7
370
    25
100
AcDbLine
 10
75.9820461644
 20
192.2507451998
 30
0.0
 11
75.0118762625
 21
192.0088555815
 31
0.0
  0
LINE
  5
11F
330
1F
100
AcDbEntity
  8
0
  6
Continuous
 62
     7
370
    25
100
AcDbLine
 10
75.0118762625
 20
192.0088555815
 30
0.0
 11
74.9073669685
 21
190.8143421786
 31
0.0
  0
LINE
  5
120
330
1F
100
AcDbEntity
  8
0
  6
Continuous
 62
     7
370
    25
100
AcDbLine
 10
103.3248871935
 20
200.9043179603
 30
0.0
 11
102.7576968444
 21
200.9043179603
 31
0.0
  0
LINE
  5
121
330
1F
100
AcDbEntity
  8
0
  6
Continuous
 62
     7
370
    25
100
AcDbLine
 10
75.7119030131
 20
189.1630029457
 30
0.0
 11
74.7435957564
 21
188.9215761947
 31
0.0
  0
LINE
  5
122
330
1F
100
AcDbEntity
  8
0
  6
Continuous
 62
     7
370
    25
100
AcDbLine
 10
74.7435957564
 20
188.9215761947
 30
0.0
 11
74.6601939572
 21
187.9851252923
 31
0.0
  0
ARC
  5
123
330
1F
100
AcDbEntity
  8
0
  6
Continuous
 62
     7
370
    25
100
AcDbCircle
 10
74.1621652416
 20
188.0294798078
 30
0.0
 40
0.4999999999999964
100
AcDbArc
 50
297.2553234406
 51
354.9106419523
  0
LINE
  5
124
330
1F
100
AcDbEntity
  8
0
  6
Continuous
 62
     7
370
    25
100
AcDbLine
 10
74.3911460412
 20
187.584992327
 30
0.0
 11
74.1307482494
 21
187.4508488143
 31
0.0
  0
ARC
  5
125
330
1F
100
AcDbEntity
  8
0
  6
Continuous
 62
     7
370
    25
100
AcDbCircle
 10
74.3597248887
 20
187.0063614003
 30
0.0
 40
0.5000000000000289
100
AcDbArc
 50
117.2553234405
 51
176.6075022462
  0
LINE
  5
126
330
1F
100
AcDbEntity
  8
0
  6
Continuous
 62
     7
370
    25
100
AcDbLine
 10
73.8605976475
 20
187.0359492639
 30
0.0
 11
73.7765476478
 21
185.6180106441
 31
0.0
  0
ARC
  5
127
330
1F
100
AcDbEntity
  8
0
  6
Continuous
 62
     7
370
    25
100
AcDbCircle
 10
73.2774225353
 20
185.6475982872
 30
0.0
 40
0.5000000000001036
100
AcDbArc
 50
290.0
 51
356.6075022461
  0
ARC
  5
128
330
1F
100
AcDbEntity
  8
0
  6
Continuous
 62
     7
370
    25
100
AcDbCircle
 10
61.8178014146
 20
180.6252950853
 30
0.0
 40
0.3000000000000174
100
AcDbArc
 50
110.0
 51
174.9999164919
  0
LINE
  5
129
330
1F
100
AcDbEntity
  8
0
  6
Continuous
 62
     7
370
    25
100
AcDbLine
 10
61.5189418567
 20
180.6514422386
 30
0.0
 11
61.417375542
 21
179.490534825
 31
0.0
  0
LINE
  5
12A
330
1F
100
AcDbEntity
  8
0
  6
Continuous
 62
     7
370
    25
100
AcDbLine
 10
61.417375542
 20
179.490534825
 30
0.0
 11
62.330801822
 21
179.0838516934
 31
0.0
  0
LINE
  5
12B
330
1F
100
AcDbEntity
  8
0
  6
Continuous
 62
     7
370
    25
100
AcDbLine
 10
62.221904136
 20
177.8391937876
 30
0.0
 11
61.2517416848
 21
177.5973041693
 31
0.0
  0
LINE
  5
12C
330
1F
100
AcDbEntity
  8
0
  6
Continuous
 62
     7
370
    25
100
AcDbLine
 10
61.2517416848
 20
177.5973041693
 30
0.0
 11
61.1472323907
 21
176.4027905336
 31
0.0
  0
LINE
  5
12D
330
1F
100
AcDbEntity
  8
0
  6
Continuous
 62
     7
370
    25
100
AcDbLine
 10
61.1472323907
 20
176.4027905336
 30
0.0
 11
62.0606586707
 21
175.9961073438
 31
0.0
  0
LINE
  5
12E
330
1F
100
AcDbEntity
  8
0
  6
Continuous
 62
     7
370
    25
100
AcDbLine
 10
61.9517684353
 20
174.7514515335
 30
0.0
 11
60.9834611786
 21
174.5100247825
 31
0.0
  0
LINE
  5
12F
330
1F
100
AcDbEntity
  8
0
  6
Continuous
 62
     7
370
    25
100
AcDbLine
 10
60.9834611786
 20
174.5100247825
 30
0.0
 11
60.8808592332
 21
173.3579671161
 31
0.0
  0
ARC
  5
130
330
1F
100
AcDbEntity
  8
0
  6
Continuous
 62
     7
370
    25
100
AcDbCircle
 10
61.3788852247
 20
173.3136126921
 30
0.0
 40
0.499999999999993
100
AcDbArc
 50
174.9106419524
 51
180.0000000001
  0
LINE
  5
131
330
1F
100
AcDbEntity
  8
0
  6
Continuous
 62
     7
370
    25
100
AcDbLine
 10
60.8788848294
 20
173.3136128785
 30
0.0
 11
60.8788848294
 21
168.2427691447
 31
0.0
  0
ARC
  5
132
330
1F
100
AcDbEntity
  8
0
  6
Continuous
 62
     7
370
    25
100
AcDbCircle
 10
62.878885791
 20
168.2427690926
 30
0.0
 40
2.000000566308664
100
AcDbArc
 50
180.0
 51
236.7566572902
  0
ARC
  5
133
330
1F
100
AcDbEntity
  8
0
  6
Continuous
 62
     7
370
    25
100
AcDbCircle
 10
60.6861009494
 20
164.8973704223
 30
0.0
 40
1.999999136719524
100
AcDbArc
 50
9.5825320289
 51
56.7566306082
  0
LINE
  5
134
330
1F
100
AcDbEntity
  8
0
  6
Continuous
 62
     7
370
    25
100
AcDbLine
 10
62.6581952346
 20
165.2303066256
 30
0.0
 11
63.0307168139
 21
163.0237352254
 31
0.0
  0
ARC
  5
135
330
1F
100
AcDbEntity
  8
0
  6
Continuous
 62
     7
370
    25
100
AcDbCircle
 10
61.3311725848
 20
155.0858459303
 30
0.0
 40
1.000000340639468
100
AcDbArc
 50
180.0000139336
 51
270.0000448554
  0
LINE
  5
136
330
1F
100
AcDbEntity
  8
0
  6
Continuous
 62
     7
370
    25
100
AcDbLine
 10
61.3311723245
 20
154.0858455153
 30
0.0
 11
84.5346942914
 21
154.0857821854
 31
0.0
  0
ARC
  5
137
330
1F
100
AcDbEntity
  8
0
  6
Continuous
 62
     7
370
    25
100
AcDbCircle
 10
84.5346964866
 20
157.0857819948
 30
0.0
 40
3.000000710434278
100
AcDbArc
 50
270.0000055409
 51
318.1567061887
  0
ARC
  5
138
330
1F
100
AcDbEntity
  8
0
  6
Continuous
 62
     7
370
    25
100
AcDbCircle
 10
84.7131281362
 20
161.0159821613
 30
0.0
 40
2.00000000000001
100
AcDbArc
 50
179.2248034395
 51
270.0
  0
ARC
  5
139
330
1F
100
AcDbEntity
  8
0
  6
Continuous
 62
     7
370
    25
100
AcDbCircle
 10
50.7162400009
 20
161.4759790261
 30
0.0
 40
32.00000000000171
100
AcDbArc
 50
359.2248034398
 51
9.1217930019
  0
ARC
  5
13A
330
1F
100
AcDbEntity
  8
0
  6
Continuous
 62
     7
370
    25
100
AcDbCircle
 10
83.2989069586
 20
166.7075885741
 30
0.0
 40
0.9999988566082981
100
AcDbArc
 50
0.0000007682
 51
189.1217930008
  0
LINE
  5
13B
330
1F
100
AcDbEntity
  8
0
  6
Continuous
 62
     7
370
    25
100
AcDbLine
 10
84.2989057673
 20
166.7075881885
 30
0.0
 11
84.2989057673
 21
160.8481656911
 31
0.0
  0
ARC
  5
13C
330
1F
100
AcDbEntity
  8
0
  6
Continuous
 62
     7
370
    25
100
AcDbCircle
 10
84.7989081083
 20
160.8481661372
 30
0.0
 40
0.5000000063117938
100
AcDbArc
 50
180.0
 51
269.9998540671
  0
ARC
  5
13D
330
1F
100
AcDbEntity
  8
0
  6
Continuous
 62
     7
370
    25
100
AcDbCircle
 10
153.0450501804
 20
159.2653152913
 30
0.0
 40
1.100001966402252
100
AcDbArc
 50
277.147598576
 51
341.3217784828
  0
LINE
  5
13E
330
1F
100
AcDbEntity
  8
0
  6
Continuous
 62
     7
370
    25
100
AcDbLine
 10
154.0871172582
 20
158.9130357059
 30
0.0
 11
157.5647861136
 21
169.2002404632
 31
0.0
  0
ARC
  5
13F
330
1F
100
AcDbEntity
  8
0
  6
Continuous
 62
     7
370
    25
100
AcDbCircle
 10
157.0911180793
 20
169.3603610055
 30
0.0
 40
0.4999999999999723
100
AcDbArc
 50
341.3224416741
 51
0.0900585315
  0
LINE
  5
140
330
1F
100
AcDbEntity
  8
0
  6
Continuous
 62
     7
370
    25
100
AcDbLine
 10
157.5911173967
 20
169.3611469271
 30
0.0
 11
157.5894726811
 21
170.415858567
 31
0.0
  0
LINE
  5
141
330
1F
100
AcDbEntity
  8
0
  6
Continuous
 62
     7
370
    25
100
AcDbLine
 10
157.5894726811
 20
170.415858567
 30
0.0
 11
156.64589297
 21
170.7407606917
 31
0.0
  0
LINE
  5
142
330
1F
100
AcDbEntity
  8
0
  6
Continuous
 62
     7
370
    25
100
AcDbLine
 10
156.6458939014
 20
171.9901699724
 30
0.0
 11
157.5912887601
 21
172.3156960832
 31
0.0
  0
LINE
  5
143
330
1F
100
AcDbEntity
  8
0
  6
Continuous
 62
     7
370
    25
100
AcDbLine
 10
157.5912887601
 20
172.3156960832
 30
0.0
 11
157.5912878288
 21
173.514772501
 31
0.0
  0
LINE
  5
144
330
1F
100
AcDbEntity
  8
0
  6
Continuous
 62
     7
370
    25
100
AcDbLine
 10
157.5912878288
 20
173.514772501
 30
0.0
 11
156.64589297
 21
173.8402972149
 31
0.0
  0
LINE
  5
145
330
1F
100
AcDbEntity
  8
0
  6
Continuous
 62
     7
370
    25
100
AcDbLine
 10
156.64589297
 20
175.0897092896
 30
0.0
 11
157.5912878288
 21
175.4152349347
 31
0.0
  0
LINE
  5
146
330
1F
100
AcDbEntity
  8
0
  6
Continuous
 62
     7
370
    25
100
AcDbLine
 10
157.5912878288
 20
175.4152349347
 30
0.0
 11
157.5912859661
 21
176.5339605661
 31
0.0
  0
ARC
  5
147
330
1F
100
AcDbEntity
  8
0
  6
Continuous
 62
     7
370
    25
100
AcDbCircle
 10
157.0912861951
 20
176.5339606552
 30
0.0
 40
0.5000000000000235
100
AcDbArc
 50
0.0
 51
75.000073216
  0
LINE
  5
148
330
1F
100
AcDbEntity
  8
0
  6
Continuous
 62
     7
370
    25
100
AcDbLine
 10
157.2204361109
 20
177.015957717
 30
0.0
 11
157.2206950185
 21
177.0169237314
 31
0.0
  0
LINE
  5
149
330
1F
100
AcDbEntity
  8
0
  6
Continuous
 62
     7
370
    25
100
AcDbLine
 10
145.3129915425
 20
180.2065480259
 30
0.0
 11
145.3132502174
 21
180.2075139529
 31
0.0
  0
LINE
  5
14A
330
1F
100
AcDbEntity
  8
0
  6
Continuous
 62
     7
370
    25
100
AcDbLine
 10
145.3132502174
 20
180.2075139529
 30
0.0
 11
142.7812314031
 21
180.4290369071
 31
0.0
  0
LINE
  5
14B
330
1F
100
AcDbEntity
  8
0
  6
Continuous
 62
     7
370
    25
100
AcDbLine
 10
142.7812314031
 20
180.4290369071
 30
0.0
 11
142.7812314031
 21
183.5158328211
 31
0.0
  0
LINE
  5
14C
330
1F
100
AcDbEntity
  8
0
  6
Continuous
 62
     7
370
    25
100
AcDbLine
 10
142.7812314031
 20
183.5158328211
 30
0.0
 11
141.8376516921
 21
183.8407344801
 31
0.0
  0
LINE
  5
14D
330
1F
100
AcDbEntity
  8
0
  6
Continuous
 62
     7
370
    25
100
AcDbLine
 10
141.8376526234
 20
185.0901444594
 30
0.0
 11
142.7830474821
 21
185.4156696389
 31
0.0
  0
LINE
  5
14E
330
1F
100
AcDbEntity
  8
0
  6
Continuous
 62
     7
370
    25
100
AcDbLine
 10
142.7830474821
 20
185.4156696389
 30
0.0
 11
142.7830470165
 21
186.6147460567
 31
0.0
  0
LINE
  5
14F
330
1F
100
AcDbEntity
  8
0
  6
Continuous
 62
     7
370
    25
100
AcDbLine
 10
142.7830470165
 20
186.6147460567
 30
0.0
 11
141.8376521578
 21
186.9402712362
 31
0.0
  0
LINE
  5
150
330
1F
100
AcDbEntity
  8
0
  6
Continuous
 62
     7
370
    25
100
AcDbLine
 10
141.8376516921
 20
188.1896833109
 30
0.0
 11
142.7830465508
 21
188.5152084904
 31
0.0
  0
LINE
  5
151
330
1F
100
AcDbEntity
  8
0
  6
Continuous
 62
     7
370
    25
100
AcDbLine
 10
142.7830465508
 20
188.5152084904
 30
0.0
 11
142.7830446882
 21
189.782543868
 31
0.0
  0
ARC
  5
152
330
1F
100
AcDbEntity
  8
0
  6
Continuous
 62
     7
370
    25
100
AcDbCircle
 10
142.4830447723
 20
189.7825435297
 30
0.0
 40
0.3000000000000157
100
AcDbArc
 50
0.0
 51
74.9783525244
  0
ARC
  5
153
330
1F
100
AcDbEntity
  8
0
  6
Continuous
 62
     7
370
    25
100
AcDbCircle
 10
130.8270095043
 20
194.2564846298
 30
0.0
 40
0.9999999999999988
100
AcDbArc
 50
234.9970533312
 51
254.999999999
  0
LINE
  5
154
330
1F
100
AcDbEntity
  8
0
  6
Continuous
 62
     7
370
    25
100
AcDbLine
 10
130.2533902598
 20
193.4373619186
 30
0.0
 11
127.0093310995
 21
195.7091249676
 31
0.0
  0
ARC
  5
155
330
1F
100
AcDbEntity
  8
0
  6
Continuous
 62
     7
370
    25
100
AcDbCircle
 10
122.0645629627
 20
198.5998897167
 30
0.0
 40
0.5000000000000578
100
AcDbArc
 50
10.0242291035
 51
75.0
  0
LINE
  5
156
330
1F
100
AcDbEntity
  8
0
  6
Continuous
 62
     7
370
    25
100
AcDbLine
 10
119.6249712629
 20
199.7712150367
 30
0.0
 11
122.1939724309
 21
199.0828521701
 31
0.0
  0
ARC
  5
157
330
1F
100
AcDbEntity
  8
0
  6
Continuous
 62
     7
370
    25
100
AcDbCircle
 10
119.4955609257
 20
199.2882517379
 30
0.0
 40
0.4999999999998218
100
AcDbArc
 50
74.9999999994
 51
84.9999999994
  0
ARC
  5
158
330
1F
100
AcDbEntity
  8
0
  6
Continuous
 62
     7
370
    25
100
AcDbCircle
 10
117.013724286
 20
200.5092041461
 30
0.0
 40
0.4999999999999102
100
AcDbArc
 50
254.9999708183
 51
265.0
  0
LINE
  5
159
330
1F
100
AcDbEntity
  8
0
  6
Continuous
 62
     7
370
    25
100
AcDbLine
 10
105.8142267538
 20
202.9924642446
 30
0.0
 11
105.7595096899
 21
202.9924642446
 31
0.0
  0
ARC
  5
15A
330
1F
100
AcDbEntity
  8
0
  6
Continuous
 62
     7
370
    25
100
AcDbCircle
 10
105.7595103324
 20
202.6924634653
 30
0.0
 40
0.3000000000000989
100
AcDbArc
 50
90.0000153766
 51
178.8678768731
  0
ARC
  5
15B
330
1F
100
AcDbEntity
  8
0
  6
Continuous
 62
     7
370
    25
100
AcDbCircle
 10
105.7595103324
 20
202.7043182595
 30
0.0
 40
0.2999999999998375
100
AcDbArc
 50
181.1321231268
 51
246.4219549106
  0
ARC
  5
15C
330
1F
100
AcDbEntity
  8
0
  6
Continuous
 62
     7
370
    25
100
AcDbCircle
 10
94.7595107177
 20
202.7043187022
 30
0.0
 40
0.3000000000000969
100
AcDbArc
 50
293.578178422
 51
358.8678768731
  0
ARC
  5
15D
330
1F
100
AcDbEntity
  8
0
  6
Continuous
 62
     7
370
    25
100
AcDbCircle
 10
94.7595107177
 20
202.6924639079
 30
0.0
 40
0.2999999999996937
100
AcDbArc
 50
1.1321231268
 51
90.0
  0
LINE
  5
15E
330
1F
100
AcDbEntity
  8
0
  6
Continuous
 62
     7
370
    25
100
AcDbLine
 10
94.7595097495
 20
202.9924642446
 30
0.0
 11
94.449070133
 21
202.9924642446
 31
0.0
  0
ARC
  5
15F
330
1F
100
AcDbEntity
  8
0
  6
Continuous
 62
     7
370
    25
100
AcDbCircle
 10
90.0837654031
 20
202.1231579943
 30
0.0
 40
0.6000000000000085
100
AcDbArc
 50
24.9999544088
 51
180.0
  0
LINE
  5
160
330
1F
100
AcDbEntity
  8
0
  6
Continuous
 62
     7
370
    25
100
AcDbLine
 10
78.5489350928
 20
196.4374546113
 30
0.0
 11
75.475332178
 21
195.3187555226
 31
0.0
  0
LINE
  5
161
330
1F
100
AcDbEntity
  8
0
  6
Continuous
 62
     7
370
    25
100
AcDbLine
 10
86.9854472948
 20
199.5080959203
 30
0.0
 11
82.4137971175
 21
197.8441521676
 31
0.0
  0
LINE
  5
162
330
1F
100
AcDbEntity
  8
0
  6
Continuous
 62
     7
370
    25
100
AcDbLine
 10
63.3101731909
 20
166.1741592141
 30
0.0
 11
63.8195544852
 21
163.156906903
 31
0.0
  0
ARC
  5
163
330
1F
100
AcDbEntity
  8
0
  6
Continuous
 62
     7
370
    25
100
AcDbCircle
 10
53.1702484721
 20
161.3590556488
 30
0.0
 40
10.8000000415234
100
AcDbArc
 50
359.9999316056
 51
9.5825030874
  0
LINE
  5
164
330
1F
100
AcDbEntity
  8
0
  6
Continuous
 62
     7
370
    25
100
AcDbLine
 10
63.9702499283
 20
161.3590426894
 30
0.0
 11
63.9702499283
 21
158.3858456614
 31
0.0
  0
ARC
  5
165
330
1F
100
AcDbEntity
  8
0
  6
Continuous
 62
     7
370
    25
100
AcDbCircle
 10
64.4702476535
 20
158.3858451585
 30
0.0
 40
0.5
100
AcDbArc
 50
179.9999885664
 51
270.0
  0
LINE
  5
166
330
1F
100
AcDbEntity
  8
0
  6
Continuous
 62
     7
370
    25
100
AcDbLine
 10
64.4702509416
 20
157.8858446481
 30
0.0
 11
81.2603205813
 21
157.8858446481
 31
0.0
  0
ARC
  5
167
330
1F
100
AcDbEntity
  8
0
  6
Continuous
 62
     7
370
    25
100
AcDbCircle
 10
81.2603241023
 20
158.3858453059
 30
0.0
 40
0.5
100
AcDbArc
 50
270.0
 51
354.2229412245
  0
ARC
  5
168
330
1F
100
AcDbEntity
  8
0
  6
Continuous
 62
     7
370
    25
100
AcDbCircle
 10
50.7162400009
 20
161.4759790261
 30
0.0
 40
31.20000000000126
100
AcDbArc
 50
354.2230612106
 51
8.2357497418
  0
LINE
  5
169
330
1F
100
AcDbEntity
  8
0
  6
Continuous
 62
     7
370
    25
100
AcDbLine
 10
84.9834427608
 20
158.9159824105
 30
0.0
 11
88.4454518927
 21
158.9159824105
 31
0.0
  0
LINE
  5
16A
330
1F
100
AcDbEntity
  8
0
  6
Continuous
 62
     7
370
    25
100
AcDbLine
 10
120.1694690061
 20
160.4481645079
 30
0.0
 11
85.1634860409
 21
160.4481663706
 31
0.0
  0
ARC
  5
16B
330
1F
100
AcDbEntity
  8
0
  6
Continuous
 62
     7
370
    25
100
AcDbCircle
 10
75.5779370871
 20
195.0368475395
 30
0.0
 40
0.3000000000000023
100
AcDbArc
 50
110.0
 51
174.9999164919
  0
LINE
  5
16C
330
1F
100
AcDbEntity
  8
0
  6
Continuous
 62
     7
370
    25
100
AcDbLine
 10
75.2790764345
 20
195.0629947858
 30
0.0
 11
75.1775101198
 21
193.9020862954
 31
0.0
  0
LINE
  5
16D
330
1F
100
AcDbEntity
  8
0
  6
Continuous
 62
     7
370
    25
100
AcDbLine
 10
82.3138028754
 20
197.7013357135
 30
0.0
 11
82.4137971175
 21
197.8441521676
 31
0.0
  0
ARC
  5
16E
330
1F
100
AcDbEntity
  8
0
  6
Continuous
 62
     7
370
    25
100
AcDbCircle
 10
76.6368990346
 20
193.3724162845
 30
0.0
 40
0.4999996530888984
100
AcDbArc
 50
154.5205676019
 51
166.3805567475
  0
ARC
  5
16F
330
1F
100
AcDbEntity
  8
0
  6
Continuous
 62
     7
370
    25
100
AcDbCircle
 10
76.5410681271
 20
192.2770602183
 30
0.0
 40
0.5000004696703982
100
AcDbArc
 50
183.6195842057
 51
195.4795474344
  0
LINE
  5
170
330
1F
100
AcDbEntity
  8
0
  6
Continuous
 62
     7
370
    25
100
AcDbLine
 10
74.9073669685
 20
190.8143421786
 30
0.0
 11
75.8207932485
 21
190.407658756
 31
0.0
  0
LINE
  5
171
330
1F
100
AcDbEntity
  8
0
  6
Continuous
 62
     7
370
    25
100
AcDbLine
 10
137.5248272342
 20
191.3201779278
 30
0.0
 11
137.5336775927
 21
191.4213409798
 31
0.0
  0
LWPOLYLINE
  5
172
330
1F
100
AcDbEntity
  8
0
  6
Continuous
 62
     7
370
    25
100
AcDbPolyline
 90
        7
 70
   128
 43
0.0
 10
137.5336775927
 20
191.4213409798
 10
137.8327699748
 20
191.341078669
 10
138.127014823
 20
191.2621164845
 10
138.4116409717
 20
191.1857359262
 10
138.6820346487
 20
191.1131747218
 10
138.9338121188
 20
191.0456091316
 10
139.0873294694
 20
191.0044120776
  0
LINE
  5
173
330
1F
100
AcDbEntity
  8
0
  6
Continuous
 62
     7
370
    25
100
AcDbLine
 10
113.3189805222
 20
200.8780434879
 30
0.0
 11
113.327831812
 21
200.979198158
 31
0.0
  0
LWPOLYLINE
  5
174
330
1F
100
AcDbEntity
  8
0
  6
Continuous
 62
     7
370
    25
100
AcDbPolyline
 90
        7
 70
   128
 43
0.0
 10
113.327831812
 20
200.979198158
 10
113.6269241942
 20
200.8990578504
 10
113.9211699737
 20
200.8202139439
 10
114.2057970537
 20
200.7439479383
 10
114.4761935247
 20
200.6714966299
 10
114.7279747201
 20
200.6040316226
 10
114.8816764725
 20
200.5628485384
  0
LINE
  5
175
330
1F
100
AcDbEntity
  8
0
  6
Continuous
 62
     7
370
    25
100
AcDbLine
 10
80.0782114638
 20
196.8876484932
 30
0.0
 11
80.0605759395
 21
196.9876483234
 31
0.0
  0
LWPOLYLINE
  5
176
330
1F
100
AcDbEntity
  8
0
  6
Continuous
 62
     7
370
    25
100
AcDbPolyline
 90
        7
 70
   128
 43
0.0
 10
78.5489350928
 20
196.4374546113
 10
78.6984607948
 20
196.4918773772
 10
78.9433986319
 20
196.581029162
 10
79.206456281
 20
196.676772848
 10
79.4833496583
 20
196.7775549891
 10
79.7696084154
 20
196.8817439081
 10
80.0605759395
 20
196.9876483234
  0
LWPOLYLINE
  5
177
330
1F
100
AcDbEntity
  8
0
  6
Continuous
 62
     7
370
    25
100
AcDbPolyline
 90
        7
 70
   128
 43
0.0
 10
152.3420790581
 20
178.3231096959
 10
152.6540767772
 20
178.2395102235
 10
152.9605694485
 20
178.1573857332
 10
153.256148882
 20
178.0781853629
 10
153.5355992054
 20
178.0033067951
 10
153.7939904628
 20
177.9340713436
 10
153.895744439
 20
177.9068064096
  0
LINE
  5
178
330
1F
100
AcDbEntity
  8
0
  6
Continuous
 62
     7
370
    25
100
AcDbLine
 10
154.6822896598
 20
177.6970874669
 30
0.0
 11
154.6822011841
 21
177.6960758178
 31
0.0
  0
LINE
  5
179
330
1F
100
AcDbEntity
  8
0
  6
Continuous
 62
     7
370
    25
100
AcDbLine
 10
154.6822896598
 20
177.6970874669
 30
0.0
 11
154.6843441574
 21
177.6965368224
 31
0.0
  0
LINE
  5
17A
330
1F
100
AcDbEntity
  8
0
  6
Continuous
 62
     7
370
    25
100
AcDbLine
 10
154.6842556817
 20
177.6955254061
 30
0.0
 11
154.6843441574
 21
177.6965368224
 31
0.0
  0
LINE
  5
17B
330
1F
100
AcDbEntity
  8
0
  6
Continuous
 62
     7
370
    25
100
AcDbLine
 10
152.3333094919
 20
178.2229671406
 30
0.0
 11
152.342070909
 21
178.3231117914
 31
0.0
  0
LINE
  5
17C
330
1F
100
AcDbEntity
  8
0
  6
Continuous
 62
     7
370
    25
100
AcDbLine
 10
66.3180694354
 20
182.4760952184
 30
0.0
 11
66.3004413617
 21
182.5760952814
 31
0.0
  0
LWPOLYLINE
  5
17D
330
1F
100
AcDbEntity
  8
0
  6
Continuous
 62
     7
370
    25
100
AcDbPolyline
 90
        7
 70
   128
 43
0.0
 10
64.7887930644
 20
182.0259020349
 10
64.9383187664
 20
182.0803246845
 10
65.1832640541
 20
182.1694769349
 10
65.4463142527
 20
182.2652202716
 10
65.7232150806
 20
182.3660026455
 10
66.0094663871
 20
182.4701906333
 10
66.3004413617
 20
182.5760952814
  0
LINE
  5
17E
330
1F
100
AcDbEntity
  8
0
  6
Continuous
 62
     7
370
    25
100
AcDbLine
 10
80.7461411131
 20
197.1307553502
 30
0.0
 11
80.7285055888
 21
197.2307551803
 31
0.0
  0
LWPOLYLINE
  5
17F
330
1F
100
AcDbEntity
  8
0
  6
Continuous
 62
     7
370
    25
100
AcDbPolyline
 90
        8
 70
   128
 43
0.0
 10
80.7285055888
 20
197.2307551803
 10
81.0221702231
 20
197.3376393469
 10
81.3109845293
 20
197.4427577259
 10
81.5901726855
 20
197.5443761947
 10
81.8551451338
 20
197.6408165099
 10
82.1015060318
 20
197.73048611
 10
82.3251948131
 20
197.8119023295
 10
82.4137971175
 20
197.8441521676
  0
LINE
  5
180
330
1F
100
AcDbEntity
  8
0
  6
Continuous
 62
     7
370
    25
100
AcDbLine
 10
66.9860065354
 20
182.7192027738
 30
0.0
 11
66.9683710111
 21
182.819202604
 31
0.0
  0
LWPOLYLINE
  5
181
330
1F
100
AcDbEntity
  8
0
  6
Continuous
 62
     7
370
    25
100
AcDbPolyline
 90
        8
 70
   128
 43
0.0
 10
66.9683710111
 20
182.819202604
 10
67.2620356453
 20
182.9260865377
 10
67.550842501
 20
183.0312053824
 10
67.8300381077
 20
183.1328238512
 10
68.0950031055
 20
183.2292637007
 10
68.3413714541
 20
183.3189328352
 10
68.5650602353
 20
183.4003502188
 10
68.6536625398
 20
183.43259866
  0
LWPOLYLINE
  5
182
330
1F
100
AcDbEntity
  8
0
  6
Continuous
 62
     7
370
    25
100
AcDbPolyline
 90
        7
 70
   128
 43
0.0
 10
149.9466357308
 20
178.9660020184
 10
149.7403015636
 20
179.0212891681
 10
149.5722596846
 20
179.0663158206
 10
149.4458292399
 20
179.1001927957
 10
149.3635074257
 20
179.1222508216
 10
149.3269202873
 20
179.1320542723
 10
149.3249909799
 20
179.1325712727
  0
LWPOLYLINE
  5
183
330
1F
100
AcDbEntity
  8
0
  6
Continuous
 62
     7
370
    25
100
AcDbPolyline
 90
        8
 70
   128
 43
0.0
 10
149.9466357308
 20
178.9660020184
 10
149.9942862101
 20
178.953234168
 10
150.2270593445
 20
178.8908627966
 10
150.4854514168
 20
178.8216268795
 10
150.7649029044
 20
178.7467480788
 10
151.0604831528
 20
178.6675475922
 10
151.366976639
 20
178.585422869
 10
151.6789752895
 20
178.5018230474
  0
LINE
  5
184
330
1F
100
AcDbEntity
  8
0
  6
Continuous
 62
     7
370
    25
100
AcDbLine
 10
151.6787163818
 20
178.5008571494
 30
0.0
 11
151.6789752895
 21
178.5018230474
 31
0.0
  0
LINE
  5
185
330
1F
100
AcDbEntity
  8
0
  6
Continuous
 62
     7
370
    25
100
AcDbLine
 10
151.6701251639
 20
178.4006668639
 30
0.0
 11
151.6788868138
 21
178.5008115146
 31
0.0
  0
LINE
  5
186
330
1F
100
AcDbEntity
  8
0
  6
Continuous
 62
     7
370
    25
100
AcDbLine
 10
112.6557968927
 20
201.0557416977
 30
0.0
 11
112.6646481825
 21
201.1568982305
 31
0.0
  0
LWPOLYLINE
  5
187
330
1F
100
AcDbEntity
  8
0
  6
Continuous
 62
     7
370
    25
100
AcDbPolyline
 90
        8
 70
   128
 43
0.0
 10
110.9323062373
 20
201.6210768523
 10
111.0233821345
 20
201.5966743382
 10
111.2533219529
 20
201.5350617619
 10
111.5065634621
 20
201.4672074618
 10
111.7789268864
 20
201.3942271622
 10
112.0659120751
 20
201.3173297199
 10
112.3627879096
 20
201.2377817335
 10
112.6646481825
 20
201.1568982305
  0
LINE
  5
188
330
1F
100
AcDbEntity
  8
0
  6
Continuous
 62
     7
370
    25
100
AcDbLine
 10
136.8616659565
 20
191.4981406333
 30
0.0
 11
136.8705163149
 21
191.5993036853
 31
0.0
  0
LWPOLYLINE
  5
189
330
1F
100
AcDbEntity
  8
0
  6
Continuous
 62
     7
370
    25
100
AcDbPolyline
 90
        8
 70
   128
 43
0.0
 10
135.1379555089
 20
192.0642431976
 10
135.2294085918
 20
192.0397019165
 10
135.459330715
 20
191.9780008646
 10
135.7125517351
 20
191.9100478442
 10
135.9848890824
 20
191.8369650992
 10
136.2718481941
 20
191.7599586921
 10
136.5686905009
 20
191.6802998783
 10
136.8705163149
 20
191.5993036853
  0
ARC
  5
18A
330
1F
100
AcDbEntity
  8
0
  6
Continuous
 62
     7
370
    25
100
AcDbCircle
 10
121.9453832767
 20
159.8246817773
 30
0.0
 40
0.3000000000000099
100
AcDbArc
 50
304.5301213499
 51
0.0000495633
  0
LINE
  5
18B
330
1F
100
AcDbEntity
  8
0
  6
Continuous
 62
     7
370
    25
100
AcDbLine
 10
122.2453832997
 20
160.6395606102
 30
0.0
 11
122.2453832997
 21
159.8246812971
 31
0.0
  0
LINE
  5
18C
330
1F
100
AcDbEntity
  8
0
  6
Continuous
 62
     7
370
    25
100
AcDbLine
 10
122.1154358608
 20
159.5775325002
 30
0.0
 11
121.3591702653
 21
159.0571820887
 31
0.0
  0
ARC
  5
18D
330
1F
100
AcDbEntity
  8
0
  6
Continuous
 62
     7
370
    25
100
AcDbCircle
 10
120.0616303125
 20
160.7477077162
 30
0.0
 40
0.3999999999999985
100
AcDbArc
 50
270.0
 51
314.8753817448
  0
LINE
  5
18E
330
1F
100
AcDbEntity
  8
0
  6
Continuous
 62
     7
370
    25
100
AcDbLine
 10
120.0616311652
 20
160.3477083298
 30
0.0
 11
118.2295799626
 21
160.3477083298
 31
0.0
  0
ARC
  5
18F
330
1F
100
AcDbEntity
  8
0
  6
Continuous
 62
     7
370
    25
100
AcDbCircle
 10
118.2295795049
 20
161.3477077162
 30
0.0
 40
1.000000000000004
100
AcDbArc
 50
244.0980139266
 51
270.0
  0
ARC
  5
190
330
1F
100
AcDbEntity
  8
0
  6
Continuous
 62
     7
370
    25
100
AcDbCircle
 10
88.810336828
 20
160.3424646273
 30
0.0
 40
0.9999999999999826
100
AcDbArc
 50
180.0000232072
 51
190.0000233951
  0
LINE
  5
191
330
1F
100
AcDbEntity
  8
0
  6
Continuous
 62
     7
370
    25
100
AcDbLine
 10
88.0326599253
 20
158.9941203745
 30
0.0
 11
87.8255300594
 21
160.1688161643
 31
0.0
  0
ARC
  5
192
330
1F
100
AcDbEntity
  8
0
  6
Continuous
 62
     7
370
    25
100
AcDbCircle
 10
84.0934293407
 20
158.2995266941
 30
0.0
 40
3.999999999999897
100
AcDbArc
 50
8.8654070985
 51
10.0000233951
  0
LINE
  5
193
330
1F
100
AcDbEntity
  8
0
  6
Continuous
 62
     7
370
    25
100
AcDbLine
 10
87.8103383256
 20
160.3424649837
 30
0.0
 11
87.8103383256
 21
160.4481663706
 31
0.0
  0
ARC
  5
194
330
1F
100
AcDbEntity
  8
0
  6
Continuous
 62
     7
370
    25
100
AcDbCircle
 10
79.2103368255
 20
160.348690966
 30
0.0
 40
7.000000000000005
100
AcDbArc
 50
348.1896609123
 51
0.8142423407
  0
LINE
  5
195
330
1F
100
AcDbEntity
  8
0
  6
Continuous
 62
     7
370
    25
100
AcDbLine
 10
91.2611827625
 20
160.3477083298
 30
0.0
 11
89.4291334225
 21
160.3477083298
 31
0.0
  0
ARC
  5
196
330
1F
100
AcDbEntity
  8
0
  6
Continuous
 62
     7
370
    25
100
AcDbCircle
 10
89.429132066
 20
160.7477077162
 30
0.0
 40
0.4000000000001762
100
AcDbArc
 50
228.4912320381
 51
270.0
  0
ARC
  5
197
330
1F
100
AcDbEntity
  8
0
  6
Continuous
 62
     7
370
    25
100
AcDbCircle
 10
91.2611827562
 20
161.3477077162
 30
0.0
 40
1.000000000000006
100
AcDbArc
 50
270.0
 51
295.9020951965
  0
LINE
  5
198
330
1F
100
AcDbEntity
  8
0
  6
Continuous
 62
     7
370
    25
100
AcDbLine
 10
114.4943356884
 20
160.4481645079
 30
0.0
 11
114.4943356884
 21
160.3481646778
 31
0.0
  0
LINE
  5
199
330
1F
100
AcDbEntity
  8
0
  6
Continuous
 62
     7
370
    25
100
AcDbLine
 10
94.9964344872
 20
160.3481665405
 30
0.0
 11
94.9964344872
 21
160.4481663706
 31
0.0
  0
LINE
  5
19A
330
1F
100
AcDbEntity
  8
0
  6
Continuous
 62
     7
370
    25
100
AcDbLine
 10
114.4943356884
 20
160.3481646778
 30
0.0
 11
94.9964344872
 21
160.3481665405
 31
0.0
  0
ARC
  5
19B
330
1F
100
AcDbEntity
  8
0
  6
Continuous
 62
     7
370
    25
100
AcDbCircle
 10
114.4943367258
 20
160.7481666494
 30
0.0
 40
0.4000012096284717
100
AcDbArc
 50
269.9999958221
 51
311.4094994188
  0
ARC
  5
19C
330
1F
100
AcDbEntity
  8
0
  6
Continuous
 62
     7
370
    25
100
AcDbCircle
 10
94.9964343606
 20
160.7481692075
 30
0.0
 40
0.4000023459847181
100
AcDbArc
 50
228.5907317135
 51
269.9999958221
  0
ARC
  5
19D
330
1F
100
AcDbEntity
  8
0
  6
Continuous
 62
     7
370
    25
100
AcDbCircle
 10
90.210414914
 20
197.8338873921
 30
0.0
 40
1.50625000000003
100
AcDbArc
 50
355.1957323261
 51
24.8042676737
  0
ARC
  5
19E
330
1F
100
AcDbEntity
  8
0
  6
Continuous
 62
     7
370
    25
100
AcDbCircle
 10
95.9346093548
 20
198.8432173148
 30
0.0
 40
1.506249999999888
100
AcDbArc
 50
175.195728285
 51
204.8042717149
  0
ARC
  5
19F
330
1F
100
AcDbEntity
  8
0
  6
Continuous
 62
     7
370
    25
100
AcDbCircle
 10
127.2129500736
 20
191.3901765992
 30
0.0
 40
1.506250000000692
100
AcDbArc
 50
160.1958259
 51
189.8041740999
  0
ARC
  5
1A0
330
1F
100
AcDbEntity
  8
0
  6
Continuous
 62
     7
370
    25
100
AcDbCircle
 10
121.4225690218
 20
191.8967692987
 30
0.0
 40
1.50625
100
AcDbArc
 50
340.1959510953
 51
9.8040489046
  0
LINE
  5
1A1
330
1F
100
AcDbEntity
  8
0
  6
Continuous
 62
     7
370
    25
100
AcDbLine
 10
149.3249909799
 20
179.1325712727
 30
0.0
 11
148.6187957015
 21
179.3217957054
 31
0.0
  0
LINE
  5
1A2
330
1F
100
AcDbEntity
  8
0
  6
Continuous
 62
     7
370
    25
100
AcDbLine
 10
148.6187957015
 20
179.3217957054
 30
0.0
 11
148.6187071677
 21
179.3207841727
 31
0.0
  0
LINE
  5
1A3
330
1F
100
AcDbEntity
  8
0
  6
Continuous
 62
     7
370
    25
100
AcDbLine
 10
157.2206950185
 20
177.0169237314
 30
0.0
 11
154.6843441574
 21
177.6965368224
 31
0.0
  0
LINE
  5
1A4
330
1F
100
AcDbEntity
  8
0
  6
Continuous
 62
     7
370
    25
100
AcDbLine
 10
145.6965006327
 20
180.1048223313
 30
0.0
 11
145.3132502174
 21
180.2075139529
 31
0.0
  0
LINE
  5
1A5
330
1F
100
AcDbEntity
  8
0
  6
Continuous
 62
     7
370
    25
100
AcDbLine
 10
145.6964766511
 20
180.1037935109
 30
0.0
 11
145.6965006327
 21
180.1048223313
 31
0.0
  0
ARC
  5
1A6
330
1F
100
AcDbEntity
  8
0
  6
Continuous
 62
     7
370
    25
100
AcDbCircle
 10
122.0453861349
 20
160.4159523805
 30
0.0
 40
0.1999987312549124
100
AcDbArc
 50
0.0002151331
 51
98.5249512069
  0
LINE
  5
1A7
330
1F
100
AcDbEntity
  8
0
  6
Continuous
 62
     7
370
    25
100
AcDbLine
 10
120.3177076203
 20
160.3592138888
 30
0.0
 11
122.0157377792
 21
160.6137406232
 31
0.0
  0
ARC
  5
1A8
330
1F
100
AcDbEntity
  8
0
  6
Continuous
 62
     7
370
    25
100
AcDbCircle
 10
120.1694676543
 20
161.3481650643
 30
0.0
 40
1.000000061117134
100
AcDbArc
 50
270.0000528502
 51
278.5249478989
  0
LINE
  5
1A9
330
1F
100
AcDbEntity
  8
0
  6
Continuous
 62
     7
370
    25
100
AcDbLine
 10
120.0807512177
 20
160.3481646778
 30
0.0
 11
120.1694690061
 21
160.3481646778
 31
0.0
  0
ARC
  5
1AA
330
1F
100
AcDbEntity
  8
0
  6
Continuous
 62
     7
370
    25
100
AcDbCircle
 10
121.8300759072
 20
154.8397849959
 30
0.0
 40
0.3999999999999736
100
AcDbArc
 50
254.3154930841
 51
298.718333413
  0
ARC
  5
1AB
330
1F
100
AcDbEntity
  8
0
  6
Continuous
 62
     7
370
    25
100
AcDbCircle
 10
122.4952453752
 20
157.2086594607
 30
0.0
 40
2.860491140196129
100
AcDbArc
 50
187.9487126177
 51
254.3154930841
  0
ARC
  5
1AC
330
1F
100
AcDbEntity
  8
0
  6
Continuous
 62
     7
370
    25
100
AcDbCircle
 10
121.3993430174
 20
157.0556397886
 30
0.0
 40
1.753957364064279
100
AcDbArc
 50
179.9999819084
 51
187.9486844851
  0
LINE
  5
1AD
330
1F
100
AcDbEntity
  8
0
  6
Continuous
 62
     7
370
    25
100
AcDbLine
 10
119.6453858537
 20
157.3556408437
 30
0.0
 11
119.6453858537
 21
157.0556394907
 31
0.0
  0
ARC
  5
1AE
330
1F
100
AcDbEntity
  8
0
  6
Continuous
 62
     7
370
    25
100
AcDbCircle
 10
121.3993428945
 20
157.355641125
 30
0.0
 40
1.753957364064402
100
AcDbArc
 50
104.9999848554
 51
180.0000148999
  0
LINE
  5
1AF
330
1F
100
AcDbEntity
  8
0
  6
Continuous
 62
     7
370
    25
100
AcDbLine
 10
121.6055982185
 20
159.2267386766
 30
0.0
 11
120.945385508
 21
159.0498339536
 31
0.0
  0
ARC
  5
1B0
330
1F
100
AcDbEntity
  8
0
  6
Continuous
 62
     7
370
    25
100
AcDbCircle
 10
126.6180954667
 20
155.3466846073
 30
0.0
 40
0.4999999999999751
100
AcDbArc
 50
240.2775883889
 51
277.1475576667
  0
LINE
  5
1B1
330
1F
100
AcDbEntity
  8
0
  6
Continuous
 62
     7
370
    25
100
AcDbLine
 10
126.6803078724
 20
154.8505693825
 30
0.0
 11
127.2186775131
 21
154.9180846812
 31
0.0
  0
LINE
  5
1B2
330
1F
100
AcDbEntity
  8
0
  6
Continuous
 62
     7
370
    25
100
AcDbLine
 10
91.2914507461
 20
160.3481665405
 30
0.0
 11
94.9964344872
 21
160.3481665405
 31
0.0
  0
LINE
  5
1B3
330
1F
100
AcDbEntity
  8
0
  6
Continuous
 62
     7
370
    25
100
AcDbLine
 10
86.0822990907
 20
159.0159822406
 30
0.0
 11
84.7598359359
 21
159.0159822406
 31
0.0
  0
LINE
  5
1B4
330
1F
100
AcDbEntity
  8
0
  6
Continuous
 62
     7
370
    25
100
AcDbLine
 10
84.8989084733
 20
160.3481646778
 30
0.0
 11
86.2103373183
 21
160.3481665405
 31
0.0
  0
LINE
  5
1B5
330
1F
100
AcDbEntity
  8
0
  6
Continuous
 62
     7
370
    25
100
AcDbLine
 10
114.4943356884
 20
160.3481646778
 30
0.0
 11
118.1993380559
 21
160.3481646778
 31
0.0
  0
ARC
  5
1B6
330
1F
100
AcDbEntity
  8
0
  6
Continuous
 62
     7
370
    25
100
AcDbCircle
 10
88.4454509812
 20
158.8159818076
 30
0.0
 40
0.2000003566523448
100
AcDbArc
 50
353.6008232255
 51
89.9995956824
  0
LINE
  5
1B7
330
1F
100
AcDbEntity
  8
0
  6
Continuous
 62
     7
370
    25
100
AcDbLine
 10
88.6031657828
 20
158.4277738037
 30
0.0
 11
88.6442035807
 21
158.7936904432
 31
0.0
  0
ARC
  5
1B8
330
1F
100
AcDbEntity
  8
0
  6
Continuous
 62
     7
370
    25
100
AcDbCircle
 10
80.5038706324
 20
160.6952387667
 30
0.0
 40
8.410706325697243
100
AcDbArc
 50
330.2050802305
 51
344.3599672213
  0
LINE
  5
1B9
330
1F
100
AcDbEntity
  8
0
  6
Continuous
 62
     7
370
    25
100
AcDbLine
 10
88.4454518927
 20
159.0159822406
 30
0.0
 11
88.0288042498
 21
159.0159822406
 31
0.0
  0
LINE
  5
1BA
330
1F
100
AcDbEntity
  8
0
  6
Continuous
 62
     7
370
    25
100
AcDbLine
 10
87.8103383256
 20
160.3481646778
 30
0.0
 11
89.4099891556
 21
160.3481665405
 31
0.0
  0
LINE
  5
1BB
330
1F
100
AcDbEntity
  8
0
  6
Continuous
 62
     7
370
    25
100
AcDbLine
 10
62.670250274
 20
157.6493632199
 30
0.0
 11
62.670250274
 21
157.7546622755
 31
0.0
  0
SPLINE
  5
1BC
330
1F
100
AcDbEntity
  8
0
  6
Continuous
 62
     7
370
    25
100
AcDbSpline
210
0.0
220
0.0
230
1.0
 70
     8
 71
     3
 72
    12
 73
     8
 74
     0
 42
0.000000001
 43
0.00000001
 40
0.0
 40
0.0
 40
0.0
 40
0.0
 40
0.2500000000000075
 40
0.2500000000000075
 40
0.500000000000015
 40
0.500000000000015
 40
1.0
 40
1.0
 40
1.0
 40
1.0
 10
62.67024850640157
 20
157.7546615467514
 30
0.0
 10
62.75555170927755
 20
157.7848207235824
 30
0.0
 10
62.83251138701293
 20
157.8297906281063
 30
0.0
 10
62.96044756303728
 20
157.9349461646447
 30
0.0
 10
63.01258850502828
 20
157.9956989312244
 30
0.0
 10
63.13308958299233
 20
158.1848095527292
 30
0.0
 10
63.17024851978501
 20
158.3234202812372
 30
0.0
 10
63.17024852304048
 20
158.4617682262716
 30
0.0
  0
ARC
  5
1BD
330
1F
100
AcDbEntity
  8
0
  6
Continuous
 62
     7
370
    25
100
AcDbCircle
 10
122.4952453752
 20
157.2086594607
 30
0.0
 40
2.86049114019617
100
AcDbArc
 50
254.3154930841
 51
277.1475555907
  0
LINE
  5
1BE
330
1F
100
AcDbEntity
  8
0
  6
Continuous
 62
     7
370
    25
100
AcDbLine
 10
126.6803078724
 20
154.8505693825
 30
0.0
 11
122.8511620683
 21
154.3703980895
 31
0.0
  0
ARC
  5
1BF
330
1F
100
AcDbEntity
  8
0
  6
Continuous
 62
     7
370
    25
100
AcDbCircle
 10
62.4202490316
 20
158.4617682439
 30
0.0
 40
0.7499997457226678
100
AcDbArc
 50
206.7831661042
 51
289.4711849468
  0
LINE
  5
1C0
330
1F
100
AcDbEntity
  8
0
  6
Continuous
 62
     7
370
    25
100
AcDbLine
 10
76.0420680416
 20
192.2454944031
 30
0.0
 11
76.1509582771
 21
193.4901520761
 31
0.0
  0
LINE
  5
1C1
330
1F
100
AcDbEntity
  8
0
  6
Continuous
 62
     7
370
    25
100
AcDbLine
 10
141.7774002438
 20
188.1896833109
 30
0.0
 11
141.7774007095
 21
186.9402721675
 31
0.0
  0
LINE
  5
1C2
330
1F
100
AcDbEntity
  8
0
  6
Continuous
 62
     7
370
    25
100
AcDbLine
 10
75.7719248904
 20
189.157752149
 30
0.0
 11
75.8808151258
 21
190.4024079593
 31
0.0
  0
LINE
  5
1C3
330
1F
100
AcDbEntity
  8
0
  6
Continuous
 62
     7
370
    25
100
AcDbLine
 10
98.0838470531
 20
199.9004863354
 30
0.0
 11
102.4327993763
 21
199.9004844727
 31
0.0
  0
LINE
  5
1C4
330
1F
100
AcDbEntity
  8
0
  6
Continuous
 62
     7
370
    25
100
AcDbLine
 10
62.2819260133
 20
177.8339427581
 30
0.0
 11
62.3908236993
 21
179.0786005475
 31
0.0
  0
LINE
  5
1C5
330
1F
100
AcDbEntity
  8
0
  6
Continuous
 62
     7
370
    25
100
AcDbLine
 10
62.0117903126
 20
174.7462007368
 30
0.0
 11
62.120680548
 21
175.9908565471
 31
0.0
  0
LINE
  5
1C6
330
1F
100
AcDbEntity
  8
0
  6
Continuous
 62
     7
370
    25
100
AcDbLine
 10
156.5856415217
 20
175.0897097552
 30
0.0
 11
156.5856419874
 21
173.8402981462
 31
0.0
  0
LINE
  5
1C7
330
1F
100
AcDbEntity
  8
0
  6
Continuous
 62
     7
370
    25
100
AcDbLine
 10
156.5856410561
 20
171.9901709037
 30
0.0
 11
156.5856415217
 21
170.7407606917
 31
0.0
  0
LINE
  5
1C8
330
1F
100
AcDbEntity
  8
0
  6
Continuous
 62
     7
370
    25
100
AcDbLine
 10
141.7773997781
 20
185.090144925
 30
0.0
 11
141.7774002438
 21
183.8407342473
 31
0.0
  0
LINE
  5
1C9
330
1F
100
AcDbEntity
  8
0
  6
Continuous
 62
     7
370
    25
100
AcDbLine
 10
151.6788868138
 20
178.5008115146
 30
0.0
 11
152.3419007098
 21
178.3231574262
 31
0.0
  0
LINE
  5
1CA
330
1F
100
AcDbEntity
  8
0
  6
Continuous
 62
     7
370
    25
100
AcDbLine
 10
80.0605759395
 20
196.9876483234
 30
0.0
 11
80.7285055888
 21
197.2307551803
 31
0.0
  0
LINE
  5
1CB
330
1F
100
AcDbEntity
  8
0
  6
Continuous
 62
     7
370
    25
100
AcDbLine
 10
136.8705163149
 20
191.5993036853
 30
0.0
 11
137.5336775927
 21
191.4213409798
 31
0.0
  0
LINE
  5
1CC
330
1F
100
AcDbEntity
  8
0
  6
Continuous
 62
     7
370
    25
100
AcDbLine
 10
112.6646481825
 20
201.1568982305
 30
0.0
 11
113.327831812
 21
200.979198158
 31
0.0
  0
LINE
  5
1CD
330
1F
100
AcDbEntity
  8
0
  6
Continuous
 62
     7
370
    25
100
AcDbLine
 10
66.3004413617
 20
182.5760952814
 30
0.0
 11
66.9683710111
 21
182.819202604
 31
0.0
  0
LINE
  5
1CE
330
1F
100
AcDbEntity
  8
0
  6
Continuous
 62
     7
370
    25
100
AcDbLine
 10
102.9833078755
 20
200.9043179603
 30
0.0
 11
105.7595096899
 21
201.7543193104
 31
0.0
  0
LINE
  5
1CF
330
1F
100
AcDbEntity
  8
0
  6
Continuous
 62
     7
370
    25
100
AcDbLine
 10
94.7595097495
 20
201.7543193104
 30
0.0
 11
97.5333087517
 21
200.904319823
 31
0.0
  0
LINE
  5
1D0
330
1F
100
AcDbEntity
  8
0
  6
Continuous
 62
     7
370
    25
100
AcDbLine
 10
93.906313963
 20
132.9835811756
 30
0.0
 11
93.906313963
 21
131.3835820309
 31
0.0
  0
LINE
  5
1D1
330
1F
100
AcDbEntity
  8
0
  6
Continuous
 62
     7
370
    25
100
AcDbLine
 10
93.906313963
 20
129.8835808537
 30
0.0
 11
93.906313963
 21
128.1835818789
 31
0.0
  0
LINE
  5
1D2
330
1F
100
AcDbEntity
  8
0
  6
Continuous
 62
     7
370
    25
100
AcDbLine
 10
119.3607066197
 20
132.5500505171
 30
0.0
 11
119.351991303
 21
132.5587993614
 31
0.0
  0
LINE
  5
1D3
330
1F
100
AcDbEntity
  8
0
  6
Continuous
 62
     7
370
    25
100
AcDbLine
 10
119.351991303
 20
128.7083653859
 30
0.0
 11
119.3607066197
 21
128.7171142302
 31
0.0
  0
LINE
  5
1D4
330
1F
100
AcDbEntity
  8
0
  6
Continuous
 62
     7
370
    25
100
AcDbLine
 10
87.2684128953
 20
132.5965458653
 30
0.0
 11
87.2510455919
 21
132.5877951584
 31
0.0
  0
LINE
  5
1D5
330
1F
100
AcDbEntity
  8
0
  6
Continuous
 62
     7
370
    25
100
AcDbLine
 10
87.2510455919
 20
128.6793677263
 30
0.0
 11
87.2684128953
 21
128.670618882
 31
0.0
  0
LINE
  5
1D6
330
1F
100
AcDbEntity
  8
0
  6
Continuous
 62
     7
370
    25
100
AcDbLine
 10
91.7166665567
 20
129.8835808537
 30
0.0
 11
91.7166665567
 21
131.3835820309
 31
0.0
  0
LINE
  5
1D7
330
1F
100
AcDbEntity
  8
0
  6
Continuous
 62
     7
370
    25
100
AcDbLine
 10
123.1695048881
 20
128.1835818789
 30
0.0
 11
123.1695048881
 21
129.8835808537
 31
0.0
  0
LINE
  5
1D8
330
1F
100
AcDbEntity
  8
0
  6
Continuous
 62
     7
370
    25
100
AcDbLine
 10
123.1695048881
 20
131.3835820309
 30
0.0
 11
123.1695048881
 21
132.9835811756
 31
0.0
  0
LINE
  5
1D9
330
1F
100
AcDbEntity
  8
0
  6
Continuous
 62
     7
370
    25
100
AcDbLine
 10
125.7066995276
 20
131.3835820309
 30
0.0
 11
125.7066995276
 21
129.8835808537
 31
0.0
  0
LINE
  5
1DA
330
1F
100
AcDbEntity
  8
0
  6
Continuous
 62
     7
370
    25
100
AcDbLine
 10
94.7595097495
 20
128.1835818789
 30
0.0
 11
94.7595097495
 21
132.9835811756
 31
0.0
  0
LINE
  5
1DB
330
1F
100
AcDbEntity
  8
0
  6
Continuous
 62
     7
370
    25
100
AcDbLine
 10
94.7595097495
 20
132.9835811756
 30
0.0
 11
95.0594514979
 21
132.9835811756
 31
0.0
  0
LINE
  5
1DC
330
1F
100
AcDbEntity
  8
0
  6
Continuous
 62
     7
370
    25
100
AcDbLine
 10
95.0594514979
 20
128.1835818789
 30
0.0
 11
95.0594514979
 21
132.9835811756
 31
0.0
  0
LINE
  5
1DD
330
1F
100
AcDbEntity
  8
0
  6
Continuous
 62
     7
370
    25
100
AcDbLine
 10
95.0594514979
 20
128.1835818789
 30
0.0
 11
94.7595097495
 21
128.1835818789
 31
0.0
  0
LINE
  5
1DE
330
1F
100
AcDbEntity
  8
0
  6
Continuous
 62
     7
370
    25
100
AcDbLine
 10
94.449070133
 20
128.1835818789
 30
0.0
 11
94.449070133
 21
132.9835811756
 31
0.0
  0
LINE
  5
1DF
330
1F
100
AcDbEntity
  8
0
  6
Continuous
 62
     7
370
    25
100
AcDbLine
 10
94.7595097495
 20
128.1835818789
 30
0.0
 11
94.449070133
 21
128.1835818789
 31
0.0
  0
LINE
  5
1E0
330
1F
100
AcDbEntity
  8
0
  6
Continuous
 62
     7
370
    25
100
AcDbLine
 10
94.449070133
 20
132.9835811756
 30
0.0
 11
94.7595097495
 21
132.9835811756
 31
0.0
  0
LINE
  5
1E1
330
1F
100
AcDbEntity
  8
0
  6
Continuous
 62
     7
370
    25
100
AcDbLine
 10
93.9509727431
 20
128.1835818789
 30
0.0
 11
93.9509727431
 21
129.8835808537
 31
0.0
  0
LINE
  5
1E2
330
1F
100
AcDbEntity
  8
0
  6
Continuous
 62
     7
370
    25
100
AcDbLine
 10
93.9509727431
 20
129.8835808537
 30
0.0
 11
93.9533010495
 21
129.8835808537
 31
0.0
  0
LINE
  5
1E3
330
1F
100
AcDbEntity
  8
0
  6
Continuous
 62
     7
370
    25
100
AcDbLine
 10
93.9533010495
 20
129.8835808537
 30
0.0
 11
93.9533010495
 21
131.3835820309
 31
0.0
  0
LINE
  5
1E4
330
1F
100
AcDbEntity
  8
0
  6
Continuous
 62
     7
370
    25
100
AcDbLine
 10
93.9533010495
 20
131.3835820309
 30
0.0
 11
93.9509727431
 21
131.3835820309
 31
0.0
  0
LINE
  5
1E5
330
1F
100
AcDbEntity
  8
0
  6
Continuous
 62
     7
370
    25
100
AcDbLine
 10
93.9509727431
 20
131.3835820309
 30
0.0
 11
93.9509727431
 21
132.9835811756
 31
0.0
  0
LINE
  5
1E6
330
1F
100
AcDbEntity
  8
0
  6
Continuous
 62
     7
370
    25
100
AcDbLine
 10
94.449070133
 20
128.1835818789
 30
0.0
 11
93.9509727431
 21
128.1835818789
 31
0.0
  0
LINE
  5
1E7
330
1F
100
AcDbEntity
  8
0
  6
Continuous
 62
     7
370
    25
100
AcDbLine
 10
93.9509727431
 20
132.9835811756
 30
0.0
 11
94.449070133
 21
132.9835811756
 31
0.0
  0
LINE
  5
1E8
330
1F
100
AcDbEntity
  8
0
  6
Continuous
 62
     7
370
    25
100
AcDbLine
 10
105.4595679415
 20
128.1835818789
 30
0.0
 11
105.4595679415
 21
132.9835811756
 31
0.0
  0
LINE
  5
1E9
330
1F
100
AcDbEntity
  8
0
  6
Continuous
 62
     7
370
    25
100
AcDbLine
 10
105.7595096899
 20
128.1835818789
 30
0.0
 11
105.7595096899
 21
132.9835811756
 31
0.0
  0
LINE
  5
1EA
330
1F
100
AcDbEntity
  8
0
  6
Continuous
 62
     7
370
    25
100
AcDbLine
 10
105.7595096899
 20
128.1835818789
 30
0.0
 11
105.4595679415
 21
128.1835818789
 31
0.0
  0
LINE
  5
1EB
330
1F
100
AcDbEntity
  8
0
  6
Continuous
 62
     7
370
    25
100
AcDbLine
 10
105.4595679415
 20
132.9835811756
 30
0.0
 11
105.7595096899
 21
132.9835811756
 31
0.0
  0
LINE
  5
1EC
330
1F
100
AcDbEntity
  8
0
  6
Continuous
 62
     7
370
    25
100
AcDbLine
 10
105.8142267538
 20
128.1835818789
 30
0.0
 11
105.8142267538
 21
132.9835811756
 31
0.0
  0
LINE
  5
1ED
330
1F
100
AcDbEntity
  8
0
  6
Continuous
 62
     7
370
    25
100
AcDbLine
 10
105.8142267538
 20
128.1835818789
 30
0.0
 11
105.7595096899
 21
128.1835818789
 31
0.0
  0
LINE
  5
1EE
330
1F
100
AcDbEntity
  8
0
  6
Continuous
 62
     7
370
    25
100
AcDbLine
 10
105.7595096899
 20
132.9835811756
 30
0.0
 11
105.8142267538
 21
132.9835811756
 31
0.0
  0
LINE
  5
1EF
330
1F
100
AcDbEntity
  8
0
  6
Continuous
 62
     7
370
    25
100
AcDbLine
 10
114.8816764725
 20
128.5307360939
 30
0.0
 11
114.8816764725
 21
128.1835818789
 31
0.0
  0
ELLIPSE
  5
1F0
330
1F
100
AcDbEntity
  8
0
  6
Continuous
 62
     7
370
    25
100
AcDbEllipse
 10
113.3278313983
 20
130.3335817308
 30
0.0
 11
0.0
 21
2.400000000000006
 31
0.0
210
0.0
220
0.0
230
1.0
 40
0.9808267891
 41
3.862532432920184
 42
6.283185307179586
  0
LINE
  5
1F1
330
1F
100
AcDbEntity
  8
0
  6
Continuous
 62
     7
370
    25
100
AcDbLine
 10
112.6646481825
 20
132.7335825316
 30
0.0
 11
113.327831812
 21
132.7335825316
 31
0.0
  0
ELLIPSE
  5
1F2
330
1F
100
AcDbEntity
  8
0
  6
Continuous
 62
     7
370
    25
100
AcDbEllipse
 10
112.6646472496
 20
130.3335817308
 30
0.0
 11
0.0
 21
2.400000000000006
 31
0.0
210
0.0
220
0.0
230
1.0
 40
0.9808267891
 41
0.0
 42
2.314571063578594
  0
LINE
  5
1F3
330
1F
100
AcDbEntity
  8
0
  6
Continuous
 62
     7
370
    25
100
AcDbLine
 10
110.9323062373
 20
128.1835818789
 30
0.0
 11
110.9323062373
 21
128.7086131177
 31
0.0
  0
LINE
  5
1F4
330
1F
100
AcDbEntity
  8
0
  6
Continuous
 62
     7
370
    25
100
AcDbLine
 10
116.8843143059
 20
132.9835811756
 30
0.0
 11
116.8843143059
 21
128.1835818789
 31
0.0
  0
ELLIPSE
  5
1F5
330
1F
100
AcDbEntity
  8
0
  6
Continuous
 62
     7
370
    25
100
AcDbEllipse
 10
109.31021963
 20
132.1335817308
 30
0.0
 11
0.0
 21
0.2999999999999829
 31
0.0
210
0.0
220
0.0
230
1.0
 40
0.9808267916
 41
4.712388980384704
 42
6.283185307179586
  0
LINE
  5
1F6
330
1F
100
AcDbEntity
  8
0
  6
Continuous
 62
     7
370
    25
100
AcDbLine
 10
109.3102179838
 20
132.4335811786
 30
0.0
 11
106.9803841782
 21
132.4335811786
 31
0.0
  0
ELLIPSE
  5
1F7
330
1F
100
AcDbEntity
  8
0
  6
Continuous
 62
     7
370
    25
100
AcDbEllipse
 10
106.9803827064
 20
132.1335817308
 30
0.0
 11
0.0
 21
0.2999999999999829
 31
0.0
210
0.0
220
0.0
230
1.0
 40
0.9940336515
 41
0.0
 42
1.570796326794897
  0
LINE
  5
1F8
330
1F
100
AcDbEntity
  8
0
  6
Continuous
 62
     7
370
    25
100
AcDbLine
 10
106.6821709646
 20
132.1335816882
 30
0.0
 11
106.6821709646
 21
129.2335810266
 31
0.0
  0
ELLIPSE
  5
1F9
330
1F
100
AcDbEntity
  8
0
  6
Continuous
 62
     7
370
    25
100
AcDbEllipse
 10
106.9803827064
 20
129.2335817308
 30
0.0
 11
0.0
 21
0.3000000000000114
 31
0.0
210
0.0
220
0.0
230
1.0
 40
0.9940336515
 41
1.570796326794897
 42
3.141592653589793
  0
LINE
  5
1FA
330
1F
100
AcDbEntity
  8
0
  6
Continuous
 62
     7
370
    25
100
AcDbLine
 10
109.3102179838
 20
128.9335815362
 30
0.0
 11
106.9803841782
 21
128.9335815362
 31
0.0
  0
ELLIPSE
  5
1FB
330
1F
100
AcDbEntity
  8
0
  6
Continuous
 62
     7
370
    25
100
AcDbEllipse
 10
109.31021963
 20
129.2335817308
 30
0.0
 11
0.0
 21
0.3000000000000114
 31
0.0
210
0.0
220
0.0
230
1.0
 40
0.9808267916
 41
3.141592653589793
 42
4.712388980384704
  0
LINE
  5
1FC
330
1F
100
AcDbEntity
  8
0
  6
Continuous
 62
     7
370
    25
100
AcDbLine
 10
109.6044674886
 20
129.2335810266
 30
0.0
 11
109.6044674886
 21
132.1335816882
 31
0.0
  0
LINE
  5
1FD
330
1F
100
AcDbEntity
  8
0
  6
Continuous
 62
     7
370
    25
100
AcDbLine
 10
110.9323062373
 20
128.1835818789
 30
0.0
 11
105.8142267538
 21
128.1835818789
 31
0.0
  0
LINE
  5
1FE
330
1F
100
AcDbEntity
  8
0
  6
Continuous
 62
     7
370
    25
100
AcDbLine
 10
116.8843143059
 20
128.1835818789
 30
0.0
 11
114.8816764725
 21
128.1835818789
 31
0.0
  0
LINE
  5
1FF
330
1F
100
AcDbEntity
  8
0
  6
Continuous
 62
     7
370
    25
100
AcDbLine
 10
116.5030047668
 20
132.9835811756
 30
0.0
 11
116.8843143059
 21
132.9835811756
 31
0.0
  0
LINE
  5
200
330
1F
100
AcDbEntity
  8
0
  6
Continuous
 62
     7
370
    25
100
AcDbLine
 10
105.8142267538
 20
132.9835811756
 30
0.0
 11
116.5030047668
 21
132.9835811756
 31
0.0
  0
LINE
  5
201
330
1F
100
AcDbEntity
  8
0
  6
Continuous
 62
     7
370
    25
100
AcDbLine
 10
94.9594237281
 20
132.9835811756
 30
0.0
 11
94.9594237281
 21
133.1335818521
 31
0.0
  0
LINE
  5
202
330
1F
100
AcDbEntity
  8
0
  6
Continuous
 62
     7
370
    25
100
AcDbLine
 10
94.7595097495
 20
132.9835811756
 30
0.0
 11
94.7595097495
 21
133.1335818521
 31
0.0
  0
LINE
  5
203
330
1F
100
AcDbEntity
  8
0
  6
Continuous
 62
     7
370
    25
100
AcDbLine
 10
94.7595097495
 20
133.1335818521
 30
0.0
 11
94.9594237281
 21
133.1335818521
 31
0.0
  0
LINE
  5
204
330
1F
100
AcDbEntity
  8
0
  6
Continuous
 62
     7
370
    25
100
AcDbLine
 10
94.449070133
 20
132.9835811756
 30
0.0
 11
94.449070133
 21
133.1335818521
 31
0.0
  0
LINE
  5
205
330
1F
100
AcDbEntity
  8
0
  6
Continuous
 62
     7
370
    25
100
AcDbLine
 10
94.050590731
 20
132.9835811756
 30
0.0
 11
94.050590731
 21
133.1335818521
 31
0.0
  0
LINE
  5
206
330
1F
100
AcDbEntity
  8
0
  6
Continuous
 62
     7
370
    25
100
AcDbLine
 10
94.050590731
 20
133.1335818521
 30
0.0
 11
94.449070133
 21
133.1335818521
 31
0.0
  0
LINE
  5
207
330
1F
100
AcDbEntity
  8
0
  6
Continuous
 62
     7
370
    25
100
AcDbLine
 10
94.449070133
 20
133.1335818521
 30
0.0
 11
94.7595097495
 21
133.1335818521
 31
0.0
  0
LINE
  5
208
330
1F
100
AcDbEntity
  8
0
  6
Continuous
 62
     7
370
    25
100
AcDbLine
 10
105.7595096899
 20
132.9835811756
 30
0.0
 11
105.7595096899
 21
133.1335818521
 31
0.0
  0
LINE
  5
209
330
1F
100
AcDbEntity
  8
0
  6
Continuous
 62
     7
370
    25
100
AcDbLine
 10
105.5595994366
 20
132.9835811756
 30
0.0
 11
105.5595994366
 21
133.1335818521
 31
0.0
  0
LINE
  5
20A
330
1F
100
AcDbEntity
  8
0
  6
Continuous
 62
     7
370
    25
100
AcDbLine
 10
105.5595994366
 20
133.1335818521
 30
0.0
 11
105.7595096899
 21
133.1335818521
 31
0.0
  0
LINE
  5
20B
330
1F
100
AcDbEntity
  8
0
  6
Continuous
 62
     7
370
    25
100
AcDbLine
 10
105.8010615779
 20
132.9835811756
 30
0.0
 11
105.8010615779
 21
133.1335818521
 31
0.0
  0
LINE
  5
20C
330
1F
100
AcDbEntity
  8
0
  6
Continuous
 62
     7
370
    25
100
AcDbLine
 10
105.7595096899
 20
133.1335818521
 30
0.0
 11
105.8010615779
 21
133.1335818521
 31
0.0
  0
LINE
  5
20D
330
1F
100
AcDbEntity
  8
0
  6
Continuous
 62
     7
370
    25
100
AcDbLine
 10
116.8584347142
 20
132.9835811756
 30
0.0
 11
116.8584347142
 21
133.1335818521
 31
0.0
  0
LINE
  5
20E
330
1F
100
AcDbEntity
  8
0
  6
Continuous
 62
     7
370
    25
100
AcDbLine
 10
116.8584347142
 20
133.1335818521
 30
0.0
 11
116.4898954702
 21
133.1335818521
 31
0.0
  0
LINE
  5
20F
330
1F
100
AcDbEntity
  8
0
  6
Continuous
 62
     7
370
    25
100
AcDbLine
 10
105.8010615779
 20
133.1335818521
 30
0.0
 11
116.4898954702
 21
133.1335818521
 31
0.0
  0
LINE
  5
210
330
1F
100
AcDbEntity
  8
0
  6
Continuous
 62
     7
370
    25
100
AcDbLine
 10
90.6275518609
 20
132.9835811756
 30
0.0
 11
90.6275518609
 21
128.1835818789
 31
0.0
  0
LINE
  5
211
330
1F
100
AcDbEntity
  8
0
  6
Continuous
 62
     7
370
    25
100
AcDbLine
 10
89.4837648047
 20
132.9835811756
 30
0.0
 11
89.4837648047
 21
128.1835818789
 31
0.0
  0
LINE
  5
212
330
1F
100
AcDbEntity
  8
0
  6
Continuous
 62
     7
370
    25
100
AcDbLine
 10
89.4837648047
 20
128.1835818789
 30
0.0
 11
90.6275518609
 21
128.1835818789
 31
0.0
  0
LINE
  5
213
330
1F
100
AcDbEntity
  8
0
  6
Continuous
 62
     7
370
    25
100
AcDbLine
 10
90.6275518609
 20
132.9835811756
 30
0.0
 11
89.4837648047
 21
132.9835811756
 31
0.0
  0
LINE
  5
214
330
1F
100
AcDbEntity
  8
0
  6
Continuous
 62
     7
370
    25
100
AcDbLine
 10
109.5956161989
 20
129.2335810266
 30
0.0
 11
109.5956161989
 21
132.1335816882
 31
0.0
  0
ELLIPSE
  5
215
330
1F
100
AcDbEntity
  8
0
  6
Continuous
 62
     7
370
    25
100
AcDbEllipse
 10
109.3013696054
 20
129.2335817308
 30
0.0
 11
0.0
 21
0.3000000000000114
 31
0.0
210
0.0
220
0.0
230
1.0
 40
0.9808267916
 41
3.141592653589745
 42
4.712388980384704
  0
ELLIPSE
  5
216
330
1F
100
AcDbEntity
  8
0
  6
Continuous
 62
     7
370
    25
100
AcDbEllipse
 10
109.3013696054
 20
132.1335817308
 30
0.0
 11
0.0
 21
0.2999999999999829
 31
0.0
210
0.0
220
0.0
230
1.0
 40
0.9808267916
 41
4.712388980384704
 42
6.283185307179586
  0
LINE
  5
217
330
1F
100
AcDbEntity
  8
0
  6
Continuous
 62
     7
370
    25
100
AcDbLine
 10
89.5837664974
 20
133.1335818521
 30
0.0
 11
89.5837664974
 21
132.9835811756
 31
0.0
  0
LINE
  5
218
330
1F
100
AcDbEntity
  8
0
  6
Continuous
 62
     7
370
    25
100
AcDbLine
 10
90.5369192732
 20
133.1335818521
 30
0.0
 11
90.5369192732
 21
132.9835811756
 31
0.0
  0
LINE
  5
219
330
1F
100
AcDbEntity
  8
0
  6
Continuous
 62
     7
370
    25
100
AcDbLine
 10
90.5369192732
 20
133.1335818521
 30
0.0
 11
89.5837664974
 21
133.1335818521
 31
0.0
  0
LINE
  5
21A
330
1F
100
AcDbEntity
  8
0
  6
Continuous
 62
     7
370
    25
100
AcDbLine
 10
93.9082175864
 20
132.9835811756
 30
0.0
 11
93.9082175864
 21
131.3835820309
 31
0.0
  0
LINE
  5
21B
330
1F
100
AcDbEntity
  8
0
  6
Continuous
 62
     7
370
    25
100
AcDbLine
 10
93.9509727431
 20
131.3835820309
 30
0.0
 11
93.9082175864
 21
131.3835820309
 31
0.0
  0
LINE
  5
21C
330
1F
100
AcDbEntity
  8
0
  6
Continuous
 62
     7
370
    25
100
AcDbLine
 10
93.9082175864
 20
132.9835811756
 30
0.0
 11
93.9509727431
 21
132.9835811756
 31
0.0
  0
LINE
  5
21D
330
1F
100
AcDbEntity
  8
0
  6
Continuous
 62
     7
370
    25
100
AcDbLine
 10
93.9082175864
 20
129.8835808537
 30
0.0
 11
93.9082175864
 21
128.1835818789
 31
0.0
  0
LINE
  5
21E
330
1F
100
AcDbEntity
  8
0
  6
Continuous
 62
     7
370
    25
100
AcDbLine
 10
93.9082175864
 20
129.8835808537
 30
0.0
 11
93.9509727431
 21
129.8835808537
 31
0.0
  0
LINE
  5
21F
330
1F
100
AcDbEntity
  8
0
  6
Continuous
 62
     7
370
    25
100
AcDbLine
 10
93.9509727431
 20
128.1835818789
 30
0.0
 11
93.9082175864
 21
128.1835818789
 31
0.0
  0
LINE
  5
220
330
1F
100
AcDbEntity
  8
0
  6
Continuous
 62
     7
370
    25
100
AcDbLine
 10
94.0032497419
 20
132.9835811756
 30
0.0
 11
94.0032497419
 21
133.1335818521
 31
0.0
  0
LINE
  5
221
330
1F
100
AcDbEntity
  8
0
  6
Continuous
 62
     7
370
    25
100
AcDbLine
 10
94.0032497419
 20
133.1335818521
 30
0.0
 11
94.050590731
 21
133.1335818521
 31
0.0
  0
LINE
  5
222
330
1F
100
AcDbEntity
  8
0
  6
Continuous
 62
     7
370
    25
100
AcDbLine
 10
91.0187185181
 20
132.9835811756
 30
0.0
 11
91.0187185181
 21
131.3835820309
 31
0.0
  0
LINE
  5
223
330
1F
100
AcDbEntity
  8
0
  6
Continuous
 62
     7
370
    25
100
AcDbLine
 10
91.0187185181
 20
131.3835820309
 30
0.0
 11
90.811406113
 21
131.3835820309
 31
0.0
  0
LINE
  5
224
330
1F
100
AcDbEntity
  8
0
  6
Continuous
 62
     7
370
    25
100
AcDbLine
 10
90.811406113
 20
131.3835820309
 30
0.0
 11
90.811406113
 21
129.8835808537
 31
0.0
  0
LINE
  5
225
330
1F
100
AcDbEntity
  8
0
  6
Continuous
 62
     7
370
    25
100
AcDbLine
 10
90.811406113
 20
129.8835808537
 30
0.0
 11
91.0187185181
 21
129.8835808537
 31
0.0
  0
LINE
  5
226
330
1F
100
AcDbEntity
  8
0
  6
Continuous
 62
     7
370
    25
100
AcDbLine
 10
91.0187185181
 20
129.8835808537
 30
0.0
 11
91.0187185181
 21
128.1835818789
 31
0.0
  0
LINE
  5
227
330
1F
100
AcDbEntity
  8
0
  6
Continuous
 62
     7
370
    25
100
AcDbLine
 10
91.0187185181
 20
128.1835818789
 30
0.0
 11
90.6275518609
 21
128.1835818789
 31
0.0
  0
LINE
  5
228
330
1F
100
AcDbEntity
  8
0
  6
Continuous
 62
     7
370
    25
100
AcDbLine
 10
90.6275518609
 20
132.9835811756
 30
0.0
 11
91.0187185181
 21
132.9835811756
 31
0.0
  0
LINE
  5
229
330
1F
100
AcDbEntity
  8
0
  6
Continuous
 62
     7
370
    25
100
AcDbLine
 10
90.9503408147
 20
133.1335818521
 30
0.0
 11
90.9503408147
 21
132.9835811756
 31
0.0
  0
LINE
  5
22A
330
1F
100
AcDbEntity
  8
0
  6
Continuous
 62
     7
370
    25
100
AcDbLine
 10
90.5369192732
 20
133.1335818521
 30
0.0
 11
90.9503408147
 21
133.1335818521
 31
0.0
  0
LINE
  5
22B
330
1F
100
AcDbEntity
  8
0
  6
Continuous
 62
     7
370
    25
100
AcDbLine
 10
109.6044674886
 20
132.1335816882
 30
0.0
 11
109.5956161989
 21
132.1335816882
 31
0.0
  0
LINE
  5
22C
330
1F
100
AcDbEntity
  8
0
  6
Continuous
 62
     7
370
    25
100
AcDbLine
 10
109.5956161989
 20
129.2335810266
 30
0.0
 11
109.6044674886
 21
129.2335810266
 31
0.0
  0
LINE
  5
22D
330
1F
100
AcDbEntity
  8
0
  6
Continuous
 62
     7
370
    25
100
AcDbLine
 10
93.906313963
 20
131.3835820309
 30
0.0
 11
93.9082175864
 21
131.3835820309
 31
0.0
  0
LINE
  5
22E
330
1F
100
AcDbEntity
  8
0
  6
Continuous
 62
     7
370
    25
100
AcDbLine
 10
93.9082175864
 20
132.9835811756
 30
0.0
 11
93.906313963
 21
132.9835811756
 31
0.0
  0
LINE
  5
22F
330
1F
100
AcDbEntity
  8
0
  6
Continuous
 62
     7
370
    25
100
AcDbLine
 10
93.9082175864
 20
129.8835808537
 30
0.0
 11
93.906313963
 21
129.8835808537
 31
0.0
  0
LINE
  5
230
330
1F
100
AcDbEntity
  8
0
  6
Continuous
 62
     7
370
    25
100
AcDbLine
 10
93.906313963
 20
128.1835818789
 30
0.0
 11
93.9082175864
 21
128.1835818789
 31
0.0
  0
LINE
  5
231
330
1F
100
AcDbEntity
  8
0
  6
Continuous
 62
     7
370
    25
100
AcDbLine
 10
90.8687010778
 20
131.3835820309
 30
0.0
 11
90.8687010778
 21
129.8835808537
 31
0.0
  0
ELLIPSE
  5
232
330
1F
100
AcDbEntity
  8
0
  6
Continuous
 62
     7
370
    25
100
AcDbEllipse
 10
112.5378553402
 20
130.3335817308
 30
0.0
 11
0.0
 21
2.400000000000006
 31
0.0
210
0.0
220
0.0
230
1.0
 40
0.9090389553
 41
2.314571063578597
 42
2.387604731204652
  0
LINE
  5
233
330
1F
100
AcDbEntity
  8
0
  6
Continuous
 62
     7
370
    25
100
AcDbLine
 10
102.9833078755
 20
132.7335825316
 30
0.0
 11
105.4595679415
 21
132.7335825316
 31
0.0
  0
LINE
  5
234
330
1F
100
AcDbEntity
  8
0
  6
Continuous
 62
     7
370
    25
100
AcDbLine
 10
102.9833078755
 20
132.7335825316
 30
0.0
 11
102.9833078755
 21
132.9835811756
 31
0.0
  0
LINE
  5
235
330
1F
100
AcDbEntity
  8
0
  6
Continuous
 62
     7
370
    25
100
AcDbLine
 10
102.9833078755
 20
132.9835811756
 30
0.0
 11
105.4595679415
 21
132.9835811756
 31
0.0
  0
LINE
  5
236
330
1F
100
AcDbEntity
  8
0
  6
Continuous
 62
     7
370
    25
100
AcDbLine
 10
95.0594514979
 20
132.7335825316
 30
0.0
 11
97.5333087517
 21
132.7335825316
 31
0.0
  0
LINE
  5
237
330
1F
100
AcDbEntity
  8
0
  6
Continuous
 62
     7
370
    25
100
AcDbLine
 10
97.5333087517
 20
132.7335825316
 30
0.0
 11
97.5333087517
 21
132.9835811756
 31
0.0
  0
LINE
  5
238
330
1F
100
AcDbEntity
  8
0
  6
Continuous
 62
     7
370
    25
100
AcDbLine
 10
95.0594514979
 20
132.9835811756
 30
0.0
 11
97.5333087517
 21
132.9835811756
 31
0.0
  0
ELLIPSE
  5
239
330
1F
100
AcDbEntity
  8
0
  6
Continuous
 62
     7
370
    25
100
AcDbEllipse
 10
113.3189813722
 20
130.3335817308
 30
0.0
 11
0.0
 21
2.400000000000006
 31
0.0
210
0.0
220
0.0
230
1.0
 40
0.9808267891
 41
3.815601866697285
 42
6.283185307179586
  0
LINE
  5
23A
330
1F
100
AcDbEntity
  8
0
  6
Continuous
 62
     7
370
    25
100
AcDbLine
 10
114.7881567848
 20
128.1835818789
 30
0.0
 11
114.7881567848
 21
128.4584002696
 31
0.0
  0
LINE
  5
23B
330
1F
100
AcDbEntity
  8
0
  6
Continuous
 62
     7
370
    25
100
AcDbLine
 10
111.0443741453
 20
128.5840654872
 30
0.0
 11
111.0443741453
 21
128.1835818789
 31
0.0
  0
LINE
  5
23C
330
1F
100
AcDbEntity
  8
0
  6
Continuous
 62
     7
370
    25
100
AcDbLine
 10
111.0443741453
 20
128.1835818789
 30
0.0
 11
114.7881567848
 21
128.1835818789
 31
0.0
  0
LINE
  5
23D
330
1F
100
AcDbEntity
  8
0
  6
Continuous
 62
     7
370
    25
100
AcDbLine
 10
97.5183330847
 20
132.9835811756
 30
0.0
 11
97.5183330847
 21
133.1335818521
 31
0.0
  0
LINE
  5
23E
330
1F
100
AcDbEntity
  8
0
  6
Continuous
 62
     7
370
    25
100
AcDbLine
 10
94.9594237281
 20
133.1335818521
 30
0.0
 11
97.5183330847
 21
133.1335818521
 31
0.0
  0
LINE
  5
23F
330
1F
100
AcDbEntity
  8
0
  6
Continuous
 62
     7
370
    25
100
AcDbLine
 10
102.9982760919
 20
132.9835811756
 30
0.0
 11
102.9982760919
 21
133.1335818521
 31
0.0
  0
LINE
  5
240
330
1F
100
AcDbEntity
  8
0
  6
Continuous
 62
     7
370
    25
100
AcDbLine
 10
102.9982760919
 20
133.1335818521
 30
0.0
 11
105.5595994366
 21
133.1335818521
 31
0.0
  0
LINE
  5
241
330
1F
100
AcDbEntity
  8
0
  6
Continuous
 62
     7
370
    25
100
AcDbLine
 10
103.3248871935
 20
128.1835818789
 30
0.0
 11
103.3248871935
 21
132.7335825316
 31
0.0
  0
LINE
  5
242
330
1F
100
AcDbEntity
  8
0
  6
Continuous
 62
     7
370
    25
100
AcDbLine
 10
103.3248871935
 20
128.1835818789
 30
0.0
 11
105.4595679415
 21
128.1835818789
 31
0.0
  0
LINE
  5
243
330
1F
100
AcDbEntity
  8
0
  6
Continuous
 62
     7
370
    25
100
AcDbLine
 10
97.1920013798
 20
132.7335825316
 30
0.0
 11
97.1920013798
 21
128.1835818789
 31
0.0
  0
LINE
  5
244
330
1F
100
AcDbEntity
  8
0
  6
Continuous
 62
     7
370
    25
100
AcDbLine
 10
95.0594514979
 20
128.1835818789
 30
0.0
 11
97.1920013798
 21
128.1835818789
 31
0.0
  0
LINE
  5
245
330
1F
100
AcDbEntity
  8
0
  6
Continuous
 62
     7
370
    25
100
AcDbLine
 10
90.9503408147
 20
129.8835808537
 30
0.0
 11
90.9503408147
 21
131.3835820309
 31
0.0
  0
LINE
  5
246
330
1F
100
AcDbEntity
  8
0
  6
Continuous
 62
     7
370
    25
100
AcDbLine
 10
110.9323062373
 20
128.1835818789
 30
0.0
 11
111.0443741453
 21
128.1835818789
 31
0.0
  0
LINE
  5
247
330
1F
100
AcDbEntity
  8
0
  6
Continuous
 62
     7
370
    25
100
AcDbLine
 10
91.0579681767
 20
132.9835811756
 30
0.0
 11
91.0579681767
 21
131.3835820309
 31
0.0
  0
LINE
  5
248
330
1F
100
AcDbEntity
  8
0
  6
Continuous
 62
     7
370
    25
100
AcDbLine
 10
91.0187185181
 20
131.3835820309
 30
0.0
 11
91.0579681767
 21
131.3835820309
 31
0.0
  0
LINE
  5
249
330
1F
100
AcDbEntity
  8
0
  6
Continuous
 62
     7
370
    25
100
AcDbLine
 10
91.0579681767
 20
132.9835811756
 30
0.0
 11
91.0187185181
 21
132.9835811756
 31
0.0
  0
LINE
  5
24A
330
1F
100
AcDbEntity
  8
0
  6
Continuous
 62
     7
370
    25
100
AcDbLine
 10
91.0579681767
 20
129.8835808537
 30
0.0
 11
91.0579681767
 21
128.1835818789
 31
0.0
  0
LINE
  5
24B
330
1F
100
AcDbEntity
  8
0
  6
Continuous
 62
     7
370
    25
100
AcDbLine
 10
91.0579681767
 20
129.8835808537
 30
0.0
 11
91.0187185181
 21
129.8835808537
 31
0.0
  0
LINE
  5
24C
330
1F
100
AcDbEntity
  8
0
  6
Continuous
 62
     7
370
    25
100
AcDbLine
 10
91.0187185181
 20
128.1835818789
 30
0.0
 11
91.0579681767
 21
128.1835818789
 31
0.0
  0
LINE
  5
24D
330
1F
100
AcDbEntity
  8
0
  6
Continuous
 62
     7
370
    25
100
AcDbLine
 10
91.8673098458
 20
132.9835811756
 30
0.0
 11
91.8673098458
 21
133.1335818521
 31
0.0
  0
LINE
  5
24E
330
1F
100
AcDbEntity
  8
0
  6
Continuous
 62
     7
370
    25
100
AcDbLine
 10
91.8673098458
 20
133.1335818521
 30
0.0
 11
90.9503408147
 21
133.1335818521
 31
0.0
  0
LINE
  5
24F
330
1F
100
AcDbEntity
  8
0
  6
Continuous
 62
     7
370
    25
100
AcDbLine
 10
91.43227417
 20
131.3835820309
 30
0.0
 11
91.43227417
 21
129.8835808537
 31
0.0
  0
LINE
  5
250
330
1F
100
AcDbEntity
  8
0
  6
Continuous
 62
     7
370
    25
100
AcDbLine
 10
91.9484243167
 20
132.9835811756
 30
0.0
 11
91.9484243167
 21
132.5835818551
 31
0.0
  0
LINE
  5
251
330
1F
100
AcDbEntity
  8
0
  6
Continuous
 62
     7
370
    25
100
AcDbLine
 10
91.9657878948
 20
131.3835820309
 30
0.0
 11
91.9657878948
 21
132.5835818551
 31
0.0
  0
LINE
  5
252
330
1F
100
AcDbEntity
  8
0
  6
Continuous
 62
     7
370
    25
100
AcDbLine
 10
91.7166665567
 20
131.3835820309
 30
0.0
 11
91.9657878948
 21
131.3835820309
 31
0.0
  0
LINE
  5
253
330
1F
100
AcDbEntity
  8
0
  6
Continuous
 62
     7
370
    25
100
AcDbLine
 10
91.0579681767
 20
131.3835820309
 30
0.0
 11
91.5777095033
 21
131.3835820309
 31
0.0
  0
LINE
  5
254
330
1F
100
AcDbEntity
  8
0
  6
Continuous
 62
     7
370
    25
100
AcDbLine
 10
91.9484243167
 20
132.9835811756
 30
0.0
 11
91.0579681767
 21
132.9835811756
 31
0.0
  0
LINE
  5
255
330
1F
100
AcDbEntity
  8
0
  6
Continuous
 62
     7
370
    25
100
AcDbLine
 10
91.9484243167
 20
128.6835810296
 30
0.0
 11
91.9484243167
 21
128.1835818789
 31
0.0
  0
LINE
  5
256
330
1F
100
AcDbEntity
  8
0
  6
Continuous
 62
     7
370
    25
100
AcDbLine
 10
91.9657878948
 20
129.8835808537
 30
0.0
 11
91.7166665567
 21
129.8835808537
 31
0.0
  0
LINE
  5
257
330
1F
100
AcDbEntity
  8
0
  6
Continuous
 62
     7
370
    25
100
AcDbLine
 10
91.9657878948
 20
128.6835810296
 30
0.0
 11
91.9657878948
 21
129.8835808537
 31
0.0
  0
LINE
  5
258
330
1F
100
AcDbEntity
  8
0
  6
Continuous
 62
     7
370
    25
100
AcDbLine
 10
91.5777095033
 20
129.8835808537
 30
0.0
 11
91.0579681767
 21
129.8835808537
 31
0.0
  0
LINE
  5
259
330
1F
100
AcDbEntity
  8
0
  6
Continuous
 62
     7
370
    25
100
AcDbLine
 10
91.0579681767
 20
128.1835818789
 30
0.0
 11
91.9484243167
 21
128.1835818789
 31
0.0
  0
ELLIPSE
  5
25A
330
1F
100
AcDbEntity
  8
0
  6
Continuous
 62
     7
370
    25
100
AcDbEllipse
 10
113.1654115644
 20
130.3335817308
 30
0.0
 11
2.600041058012906
 21
0.0
 31
0.0
210
0.0
220
0.0
230
1.0
 40
0.9230623465
 41
5.386398193492182
 42
5.433328759715079
  0
LINE
  5
25B
330
1F
100
AcDbEntity
  8
0
  6
Continuous
 62
     7
370
    25
100
AcDbLine
 10
97.7589458597
 20
128.1835818789
 30
0.0
 11
97.7589458597
 21
132.9835811756
 31
0.0
  0
LINE
  5
25C
330
1F
100
AcDbEntity
  8
0
  6
Continuous
 62
     7
370
    25
100
AcDbLine
 10
97.7589458597
 20
128.1835818789
 30
0.0
 11
97.1920013798
 21
128.1835818789
 31
0.0
  0
LINE
  5
25D
330
1F
100
AcDbEntity
  8
0
  6
Continuous
 62
     7
370
    25
100
AcDbLine
 10
97.5333087517
 20
132.9835811756
 30
0.0
 11
97.7589458597
 21
132.9835811756
 31
0.0
  0
LINE
  5
25E
330
1F
100
AcDbEntity
  8
0
  6
Continuous
 62
     7
370
    25
100
AcDbLine
 10
98.0838470531
 20
128.1835818789
 30
0.0
 11
98.0838470531
 21
132.9835811756
 31
0.0
  0
LINE
  5
25F
330
1F
100
AcDbEntity
  8
0
  6
Continuous
 62
     7
370
    25
100
AcDbLine
 10
98.0838470531
 20
128.1835818789
 30
0.0
 11
97.7589458597
 21
128.1835818789
 31
0.0
  0
LINE
  5
260
330
1F
100
AcDbEntity
  8
0
  6
Continuous
 62
     7
370
    25
100
AcDbLine
 10
97.7589458597
 20
132.9835811756
 30
0.0
 11
98.0838470531
 21
132.9835811756
 31
0.0
  0
LINE
  5
261
330
1F
100
AcDbEntity
  8
0
  6
Continuous
 62
     7
370
    25
100
AcDbLine
 10
102.7576968444
 20
128.1835818789
 30
0.0
 11
102.7576968444
 21
132.9835811756
 31
0.0
  0
LINE
  5
262
330
1F
100
AcDbEntity
  8
0
  6
Continuous
 62
     7
370
    25
100
AcDbLine
 10
103.3248871935
 20
128.1835818789
 30
0.0
 11
102.7576968444
 21
128.1835818789
 31
0.0
  0
LINE
  5
263
330
1F
100
AcDbEntity
  8
0
  6
Continuous
 62
     7
370
    25
100
AcDbLine
 10
102.7576968444
 20
132.9835811756
 30
0.0
 11
102.9833078755
 21
132.9835811756
 31
0.0
  0
LINE
  5
264
330
1F
100
AcDbEntity
  8
0
  6
Continuous
 62
     7
370
    25
100
AcDbLine
 10
102.432795651
 20
128.1835818789
 30
0.0
 11
102.432795651
 21
132.9835811756
 31
0.0
  0
LINE
  5
265
330
1F
100
AcDbEntity
  8
0
  6
Continuous
 62
     7
370
    25
100
AcDbLine
 10
102.7576968444
 20
128.1835818789
 30
0.0
 11
102.432795651
 21
128.1835818789
 31
0.0
  0
LINE
  5
266
330
1F
100
AcDbEntity
  8
0
  6
Continuous
 62
     7
370
    25
100
AcDbLine
 10
102.432795651
 20
132.9835811756
 30
0.0
 11
102.7576968444
 21
132.9835811756
 31
0.0
  0
LINE
  5
267
330
1F
100
AcDbEntity
  8
0
  6
Continuous
 62
     7
370
    25
100
AcDbLine
 10
97.6876177264
 20
132.9835811756
 30
0.0
 11
97.6876177264
 21
133.1335818521
 31
0.0
  0
LINE
  5
268
330
1F
100
AcDbEntity
  8
0
  6
Continuous
 62
     7
370
    25
100
AcDbLine
 10
97.5183330847
 20
133.1335818521
 30
0.0
 11
97.6876177264
 21
133.1335818521
 31
0.0
  0
LINE
  5
269
330
1F
100
AcDbEntity
  8
0
  6
Continuous
 62
     7
370
    25
100
AcDbLine
 10
97.9838490856
 20
132.9835811756
 30
0.0
 11
97.9838490856
 21
133.1335818521
 31
0.0
  0
LINE
  5
26A
330
1F
100
AcDbEntity
  8
0
  6
Continuous
 62
     7
370
    25
100
AcDbLine
 10
97.6876177264
 20
133.1335818521
 30
0.0
 11
97.9838490856
 21
133.1335818521
 31
0.0
  0
LINE
  5
26B
330
1F
100
AcDbEntity
  8
0
  6
Continuous
 62
     7
370
    25
100
AcDbLine
 10
102.8290287031
 20
132.9835811756
 30
0.0
 11
102.8290287031
 21
133.1335818521
 31
0.0
  0
LINE
  5
26C
330
1F
100
AcDbEntity
  8
0
  6
Continuous
 62
     7
370
    25
100
AcDbLine
 10
102.5327973438
 20
132.9835811756
 30
0.0
 11
102.5327973438
 21
133.1335818521
 31
0.0
  0
LINE
  5
26D
330
1F
100
AcDbEntity
  8
0
  6
Continuous
 62
     7
370
    25
100
AcDbLine
 10
102.5327973438
 20
133.1335818521
 30
0.0
 11
102.8290287031
 21
133.1335818521
 31
0.0
  0
LINE
  5
26E
330
1F
100
AcDbEntity
  8
0
  6
Continuous
 62
     7
370
    25
100
AcDbLine
 10
102.8290287031
 20
133.1335818521
 30
0.0
 11
102.9982760919
 21
133.1335818521
 31
0.0
  0
LINE
  5
26F
330
1F
100
AcDbEntity
  8
0
  6
Continuous
 62
     7
370
    25
100
AcDbLine
 10
114.7881567848
 20
128.1835818789
 30
0.0
 11
114.8816764725
 21
128.1835818789
 31
0.0
  0
LINE
  5
270
330
1F
100
AcDbEntity
  8
0
  6
Continuous
 62
     7
370
    25
100
AcDbLine
 10
116.9701449943
 20
132.9835811756
 30
0.0
 11
116.9701449943
 21
128.1835818789
 31
0.0
  0
LINE
  5
271
330
1F
100
AcDbEntity
  8
0
  6
Continuous
 62
     7
370
    25
100
AcDbLine
 10
116.8843143059
 20
128.1835818789
 30
0.0
 11
116.9701449943
 21
128.1835818789
 31
0.0
  0
LINE
  5
272
330
1F
100
AcDbEntity
  8
0
  6
Continuous
 62
     7
370
    25
100
AcDbLine
 10
116.8843143059
 20
132.9835811756
 30
0.0
 11
116.9701449943
 21
132.9835811756
 31
0.0
  0
LINE
  5
273
330
1F
100
AcDbEntity
  8
0
  6
Continuous
 62
     7
370
    25
100
AcDbLine
 10
119.5391387118
 20
132.9835811756
 30
0.0
 11
119.5391387118
 21
128.1835818789
 31
0.0
  0
LINE
  5
274
330
1F
100
AcDbEntity
  8
0
  6
Continuous
 62
     7
370
    25
100
AcDbLine
 10
117.0882366968
 20
132.4078170709
 30
0.0
 11
117.0882366968
 21
128.8593458138
 31
0.0
  0
ELLIPSE
  5
275
330
1F
100
AcDbEntity
  8
0
  6
Continuous
 62
     7
370
    25
100
AcDbEllipse
 10
117.2874740222
 20
132.4078177633
 30
0.0
 11
0.0
 21
0.2007639675086921
 31
0.0
210
0.0
220
0.0
230
1.0
 40
0.9924038765
 41
0.0
 42
1.570796326794897
  0
LINE
  5
276
330
1F
100
AcDbEntity
  8
0
  6
Continuous
 62
     7
370
    25
100
AcDbLine
 10
117.2490798307
 20
132.6085822783
 30
0.0
 11
117.2874726725
 21
132.6085822783
 31
0.0
  0
ELLIPSE
  5
277
330
1F
100
AcDbEntity
  8
0
  6
Continuous
 62
     7
370
    25
100
AcDbEllipse
 10
117.2490809301
 20
132.4078177633
 30
0.0
 11
0.0
 21
0.2007639675086637
 31
0.0
210
0.0
220
0.0
230
1.0
 40
0.9924038765
 41
0.0
 42
1.570796326794897
  0
LINE
  5
278
330
1F
100
AcDbEntity
  8
0
  6
Continuous
 62
     7
370
    25
100
AcDbLine
 10
117.0498401297
 20
132.4078170709
 30
0.0
 11
117.0498401297
 21
128.8593458138
 31
0.0
  0
ELLIPSE
  5
279
330
1F
100
AcDbEntity
  8
0
  6
Continuous
 62
     7
370
    25
100
AcDbEllipse
 10
117.2490809301
 20
128.8593456983
 30
0.0
 11
0.0
 21
0.2007639675086352
 31
0.0
210
0.0
220
0.0
230
1.0
 40
0.9924038765
 41
1.570796326794897
 42
3.141592653589793
  0
LINE
  5
27A
330
1F
100
AcDbEntity
  8
0
  6
Continuous
 62
     7
370
    25
100
AcDbLine
 10
117.2874726725
 20
128.658582469
 30
0.0
 11
117.2490798307
 21
128.658582469
 31
0.0
  0
ELLIPSE
  5
27B
330
1F
100
AcDbEntity
  8
0
  6
Continuous
 62
     7
370
    25
100
AcDbEllipse
 10
117.2874740222
 20
128.8593456983
 30
0.0
 11
0.0
 21
0.2007639675086352
 31
0.0
210
0.0
220
0.0
230
1.0
 40
0.9924038765
 41
1.570796326794897
 42
3.141592653589793
  0
ELLIPSE
  5
27C
330
1F
100
AcDbEntity
  8
0
  6
Continuous
 62
     7
370
    25
100
AcDbEllipse
 10
119.2584848305
 20
128.8593456983
 30
0.0
 11
0.0
 21
0.2007639675086352
 31
0.0
210
0.0
220
0.0
230
1.0
 40
0.9924038765
 41
3.141592644456967
 42
4.712388980384704
  0
LINE
  5
27D
330
1F
100
AcDbEntity
  8
0
  6
Continuous
 62
     7
370
    25
100
AcDbLine
 10
119.4577243549
 20
128.8593458138
 30
0.0
 11
119.4577243549
 21
132.4078170709
 31
0.0
  0
ELLIPSE
  5
27E
330
1F
100
AcDbEntity
  8
0
  6
Continuous
 62
     7
370
    25
100
AcDbEllipse
 10
119.2584848305
 20
132.4078177633
 30
0.0
 11
0.0
 21
0.2007639675086921
 31
0.0
210
0.0
220
0.0
230
1.0
 40
0.9924038765
 41
4.712388980384704
 42
6.283185307179586
  0
LINE
  5
27F
330
1F
100
AcDbEntity
  8
0
  6
Continuous
 62
     7
370
    25
100
AcDbLine
 10
119.2200918121
 20
132.6085822783
 30
0.0
 11
119.2584846539
 21
132.6085822783
 31
0.0
  0
ELLIPSE
  5
280
330
1F
100
AcDbEntity
  8
0
  6
Continuous
 62
     7
370
    25
100
AcDbEllipse
 10
119.2200917365
 20
132.4078177633
 30
0.0
 11
0.0
 21
0.2007639675086921
 31
0.0
210
0.0
220
0.0
230
1.0
 40
0.9924038765
 41
4.712388980384704
 42
6.283185307179586
  0
LINE
  5
281
330
1F
100
AcDbEntity
  8
0
  6
Continuous
 62
     7
370
    25
100
AcDbLine
 10
119.4193315131
 20
128.8593458138
 30
0.0
 11
119.4193315131
 21
132.4078170709
 31
0.0
  0
ELLIPSE
  5
282
330
1F
100
AcDbEntity
  8
0
  6
Continuous
 62
     7
370
    25
100
AcDbEllipse
 10
119.2200917365
 20
128.8593456983
 30
0.0
 11
0.0
 21
0.2007639675086352
 31
0.0
210
0.0
220
0.0
230
1.0
 40
0.9924038765
 41
3.141592653589793
 42
4.712388980384704
  0
LINE
  5
283
330
1F
100
AcDbEntity
  8
0
  6
Continuous
 62
     7
370
    25
100
AcDbLine
 10
119.2584846539
 20
128.658582469
 30
0.0
 11
119.2200918121
 21
128.658582469
 31
0.0
  0
LINE
  5
284
330
1F
100
AcDbEntity
  8
0
  6
Continuous
 62
     7
370
    25
100
AcDbLine
 10
116.9701449943
 20
128.1835818789
 30
0.0
 11
119.5391387118
 21
128.1835818789
 31
0.0
  0
LINE
  5
285
330
1F
100
AcDbEntity
  8
0
  6
Continuous
 62
     7
370
    25
100
AcDbLine
 10
116.9701449943
 20
132.9835811756
 30
0.0
 11
119.5391387118
 21
132.9835811756
 31
0.0
  0
LINE
  5
286
330
1F
100
AcDbEntity
  8
0
  6
Continuous
 62
     7
370
    25
100
AcDbLine
 10
117.0882366968
 20
132.4078170709
 30
0.0
 11
117.0795195175
 21
132.4165659152
 31
0.0
  0
LINE
  5
287
330
1F
100
AcDbEntity
  8
0
  6
Continuous
 62
     7
370
    25
100
AcDbLine
 10
117.0795195175
 20
128.8505969695
 30
0.0
 11
117.0882366968
 21
128.8593458138
 31
0.0
  0
LINE
  5
288
330
1F
100
AcDbEntity
  8
0
  6
Continuous
 62
     7
370
    25
100
AcDbLine
 10
117.0795195175
 20
128.8505969695
 30
0.0
 11
117.0795195175
 21
132.4165659152
 31
0.0
  0
ELLIPSE
  5
289
330
1F
100
AcDbEntity
  8
0
  6
Continuous
 62
     7
370
    25
100
AcDbEllipse
 10
117.2787585155
 20
132.4165665618
 30
0.0
 11
0.0
 21
0.2007639675086637
 31
0.0
210
0.0
220
0.0
230
1.0
 40
0.9924038765
 41
0.362286860118827
 42
1.570796326794897
  0
ELLIPSE
  5
28A
330
1F
100
AcDbEntity
  8
0
  6
Continuous
 62
     7
370
    25
100
AcDbEllipse
 10
117.2787585155
 20
128.8505968998
 30
0.0
 11
0.0
 21
0.2007639675086921
 31
0.0
210
0.0
220
0.0
230
1.0
 40
0.9924038765
 41
1.570796326794897
 42
2.779302320817139
  0
LINE
  5
28B
330
1F
100
AcDbEntity
  8
0
  6
Continuous
 62
     7
370
    25
100
AcDbLine
 10
87.1413618696
 20
132.4078170709
 30
0.0
 11
87.1413618696
 21
128.8593458138
 31
0.0
  0
ELLIPSE
  5
28C
330
1F
100
AcDbEntity
  8
0
  6
Continuous
 62
     7
370
    25
100
AcDbEllipse
 10
87.3383225695
 20
132.4078177633
 30
0.0
 11
0.0
 21
0.2007639675086637
 31
0.0
210
0.0
220
0.0
230
1.0
 40
0.9810602622
 41
0.0
 42
1.570796326794897
  0
LINE
  5
28D
330
1F
100
AcDbEntity
  8
0
  6
Continuous
 62
     7
370
    25
100
AcDbLine
 10
87.3003684355
 20
132.6085822783
 30
0.0
 11
87.338321693
 21
132.6085822783
 31
0.0
  0
ELLIPSE
  5
28E
330
1F
100
AcDbEntity
  8
0
  6
Continuous
 62
     7
370
    25
100
AcDbEllipse
 10
87.3003683273
 20
132.4078177633
 30
0.0
 11
0.0
 21
0.2007639675086637
 31
0.0
210
0.0
220
0.0
230
1.0
 40
0.9810602622
 41
0.0
 42
1.570796326794897
  0
LINE
  5
28F
330
1F
100
AcDbEntity
  8
0
  6
Continuous
 62
     7
370
    25
100
AcDbLine
 10
87.1034086121
 20
128.8593458138
 30
0.0
 11
87.1034086121
 21
132.4078170709
 31
0.0
  0
ELLIPSE
  5
290
330
1F
100
AcDbEntity
  8
0
  6
Continuous
 62
     7
370
    25
100
AcDbEllipse
 10
87.3003683273
 20
128.8593456983
 30
0.0
 11
0.0
 21
0.2007639675086352
 31
0.0
210
0.0
220
0.0
230
1.0
 40
0.9810602622
 41
1.570796326794897
 42
3.141592653589793
  0
LINE
  5
291
330
1F
100
AcDbEntity
  8
0
  6
Continuous
 62
     7
370
    25
100
AcDbLine
 10
87.338321693
 20
128.658582469
 30
0.0
 11
87.3003684355
 21
128.658582469
 31
0.0
  0
ELLIPSE
  5
292
330
1F
100
AcDbEntity
  8
0
  6
Continuous
 62
     7
370
    25
100
AcDbEllipse
 10
87.3383225695
 20
128.8593456983
 30
0.0
 11
0.0
 21
0.2007639675086637
 31
0.0
210
0.0
220
0.0
230
1.0
 40
0.9810602622
 41
1.570796326794897
 42
3.141592653589793
  0
ELLIPSE
  5
293
330
1F
100
AcDbEntity
  8
0
  6
Continuous
 62
     7
370
    25
100
AcDbEllipse
 10
89.2868038489
 20
128.8593456983
 30
0.0
 11
0.0
 21
0.2007639675086352
 31
0.0
210
0.0
220
0.0
230
1.0
 40
0.9810602622
 41
3.141592671996456
 42
4.712388971286425
  0
LINE
  5
294
330
1F
100
AcDbEntity
  8
0
  6
Continuous
 62
     7
370
    25
100
AcDbLine
 10
86.9854472948
 20
128.1835818789
 30
0.0
 11
86.9854472948
 21
132.9835811756
 31
0.0
  0
ELLIPSE
  5
295
330
1F
100
AcDbEntity
  8
0
  6
Continuous
 62
     7
370
    25
100
AcDbEllipse
 10
89.2868038489
 20
132.4078177633
 30
0.0
 11
0.0
 21
0.2007639675086921
 31
0.0
210
0.0
220
0.0
230
1.0
 40
0.9810602622
 41
4.712388989482839
 42
6.283185307179586
  0
LINE
  5
296
330
1F
100
AcDbEntity
  8
0
  6
Continuous
 62
     7
370
    25
100
AcDbLine
 10
89.2488479985
 20
132.6085822783
 30
0.0
 11
89.2868049813
 21
132.6085822783
 31
0.0
  0
ELLIPSE
  5
297
330
1F
100
AcDbEntity
  8
0
  6
Continuous
 62
     7
370
    25
100
AcDbEllipse
 10
89.2488496103
 20
132.4078177633
 30
0.0
 11
0.0
 21
0.2007639675086921
 31
0.0
210
0.0
220
0.0
230
1.0
 40
0.9810602622
 41
4.712388980384704
 42
6.283185307179586
  0
LINE
  5
298
330
1F
100
AcDbEntity
  8
0
  6
Continuous
 62
     7
370
    25
100
AcDbLine
 10
89.4458115471
 20
128.8593458138
 30
0.0
 11
89.4458115471
 21
132.4078170709
 31
0.0
  0
ELLIPSE
  5
299
330
1F
100
AcDbEntity
  8
0
  6
Continuous
 62
     7
370
    25
100
AcDbEllipse
 10
89.2488496103
 20
128.8593456983
 30
0.0
 11
0.0
 21
0.2007639675086352
 31
0.0
210
0.0
220
0.0
230
1.0
 40
0.9810602622
 41
3.141592653589793
 42
4.712388980384704
  0
LINE
  5
29A
330
1F
100
AcDbEntity
  8
0
  6
Continuous
 62
     7
370
    25
100
AcDbLine
 10
89.2868049813
 20
128.658582469
 30
0.0
 11
89.2488479985
 21
128.658582469
 31
0.0
  0
LINE
  5
29B
330
1F
100
AcDbEntity
  8
0
  6
Continuous
 62
     7
370
    25
100
AcDbLine
 10
89.4837648047
 20
128.1835818789
 30
0.0
 11
86.9854472948
 21
128.1835818789
 31
0.0
  0
LINE
  5
29C
330
1F
100
AcDbEntity
  8
0
  6
Continuous
 62
     7
370
    25
100
AcDbLine
 10
86.9854472948
 20
132.9835811756
 30
0.0
 11
89.4837648047
 21
132.9835811756
 31
0.0
  0
ELLIPSE
  5
29D
330
1F
100
AcDbEntity
  8
0
  6
Continuous
 62
     7
370
    25
100
AcDbEllipse
 10
89.2662144281
 20
132.4165666296
 30
0.0
 11
0.0
 21
0.2007639675086352
 31
0.0
210
0.0
220
0.0
230
1.0
 40
0.9810602622
 41
4.712388980384704
 42
5.831540823654162
  0
LINE
  5
29E
330
1F
100
AcDbEntity
  8
0
  6
Continuous
 62
     7
370
    25
100
AcDbLine
 10
89.4631751252
 20
132.4165659152
 30
0.0
 11
89.4458115471
 21
132.4078170709
 31
0.0
  0
LINE
  5
29F
330
1F
100
AcDbEntity
  8
0
  6
Continuous
 62
     7
370
    25
100
AcDbLine
 10
89.4458115471
 20
128.8593458138
 30
0.0
 11
89.4631751252
 21
128.8505969695
 31
0.0
  0
LINE
  5
2A0
330
1F
100
AcDbEntity
  8
0
  6
Continuous
 62
     7
370
    25
100
AcDbLine
 10
89.4631751252
 20
132.4165659152
 30
0.0
 11
89.4631751252
 21
128.8505969695
 31
0.0
  0
ELLIPSE
  5
2A1
330
1F
100
AcDbEntity
  8
0
  6
Continuous
 62
     7
370
    25
100
AcDbEllipse
 10
89.2662144281
 20
128.8505968319
 30
0.0
 11
0.0
 21
0.2007639675086921
 31
0.0
210
0.0
220
0.0
230
1.0
 40
0.9810602622
 41
3.593216917536313
 42
4.712388980384704
  0
LINE
  5
2A2
330
1F
100
AcDbEntity
  8
0
  6
Continuous
 62
     7
370
    25
100
AcDbLine
 10
89.5684183014
 20
132.9835811756
 30
0.0
 11
89.5684183014
 21
133.1335818521
 31
0.0
  0
LINE
  5
2A3
330
1F
100
AcDbEntity
  8
0
  6
Continuous
 62
     7
370
    25
100
AcDbLine
 10
89.5684183014
 20
133.1335818521
 30
0.0
 11
89.5837664974
 21
133.1335818521
 31
0.0
  0
LINE
  5
2A4
330
1F
100
AcDbEntity
  8
0
  6
Continuous
 62
     7
370
    25
100
AcDbLine
 10
116.9614315403
 20
132.9835811756
 30
0.0
 11
116.9614315403
 21
133.1335818521
 31
0.0
  0
LINE
  5
2A5
330
1F
100
AcDbEntity
  8
0
  6
Continuous
 62
     7
370
    25
100
AcDbLine
 10
116.9614315403
 20
133.1335818521
 30
0.0
 11
116.8584347142
 21
133.1335818521
 31
0.0
  0
LINE
  5
2A6
330
1F
100
AcDbEntity
  8
0
  6
Continuous
 62
     7
370
    25
100
AcDbLine
 10
119.5304233951
 20
132.9835811756
 30
0.0
 11
119.5304233951
 21
133.1335818521
 31
0.0
  0
LINE
  5
2A7
330
1F
100
AcDbEntity
  8
0
  6
Continuous
 62
     7
370
    25
100
AcDbLine
 10
119.5304233951
 20
133.1335818521
 30
0.0
 11
116.9614315403
 21
133.1335818521
 31
0.0
  0
LINE
  5
2A8
330
1F
100
AcDbEntity
  8
0
  6
Continuous
 62
     7
370
    25
100
AcDbLine
 10
98.0838470531
 20
132.5335810087
 30
0.0
 11
102.4327993763
 21
132.5335810087
 31
0.0
  0
LINE
  5
2A9
330
1F
100
AcDbEntity
  8
0
  6
Continuous
 62
     7
370
    25
100
AcDbLine
 10
98.0838470531
 20
132.9835811756
 30
0.0
 11
102.4327993763
 21
132.9835811756
 31
0.0
  0
LINE
  5
2AA
330
1F
100
AcDbEntity
  8
0
  6
Continuous
 62
     7
370
    25
100
AcDbLine
 10
87.0114274693
 20
132.9835811756
 30
0.0
 11
87.0114274693
 21
133.1335818521
 31
0.0
  0
LINE
  5
2AB
330
1F
100
AcDbEntity
  8
0
  6
Continuous
 62
     7
370
    25
100
AcDbLine
 10
87.0114274693
 20
133.1335818521
 30
0.0
 11
89.5684183014
 21
133.1335818521
 31
0.0
  0
ELLIPSE
  5
2AC
330
1F
100
AcDbEntity
  8
0
  6
Continuous
 62
     7
370
    25
100
AcDbEllipse
 10
119.2113762298
 20
132.4165665618
 30
0.0
 11
0.0
 21
0.2007639675086637
 31
0.0
210
0.0
220
0.0
230
1.0
 40
0.9924038765
 41
5.499693419409975
 42
5.980421890722067
  0
ELLIPSE
  5
2AD
330
1F
100
AcDbEntity
  8
0
  6
Continuous
 62
     7
370
    25
100
AcDbEllipse
 10
119.2113762298
 20
128.8505968998
 30
0.0
 11
0.0
 21
0.2007639675086921
 31
0.0
210
0.0
220
0.0
230
1.0
 40
0.9924038765
 41
3.444356070198302
 42
3.925084541359503
  0
LINE
  5
2AE
330
1F
100
AcDbEntity
  8
0
  6
Continuous
 62
     7
370
    25
100
AcDbLine
 10
119.4490090383
 20
132.4165659152
 30
0.0
 11
119.4577243549
 21
132.4078170709
 31
0.0
  0
ELLIPSE
  5
2AF
330
1F
100
AcDbEntity
  8
0
  6
Continuous
 62
     7
370
    25
100
AcDbEllipse
 10
119.249769322
 20
132.4165665636
 30
0.0
 11
0.0
 21
0.2007639675086637
 31
0.0
210
0.0
220
0.0
230
1.0
 40
0.9924038765
 41
4.712388980384704
 42
5.499693419409774
  0
ELLIPSE
  5
2B0
330
1F
100
AcDbEntity
  8
0
  6
Continuous
 62
     7
370
    25
100
AcDbEllipse
 10
119.249769322
 20
128.8505968979
 30
0.0
 11
0.0
 21
0.2007639675086637
 31
0.0
210
0.0
220
0.0
230
1.0
 40
0.9924038765
 41
3.925084541359483
 42
4.712388980384704
  0
LINE
  5
2B1
330
1F
100
AcDbEntity
  8
0
  6
Continuous
 62
     7
370
    25
100
AcDbLine
 10
119.4577243549
 20
128.8593458138
 30
0.0
 11
119.4490090383
 21
128.8505969695
 31
0.0
  0
LINE
  5
2B2
330
1F
100
AcDbEntity
  8
0
  6
Continuous
 62
     7
370
    25
100
AcDbLine
 10
97.9838490856
 20
133.1335818521
 30
0.0
 11
102.5328010691
 21
133.1335818521
 31
0.0
  0
LINE
  5
2B3
330
1F
100
AcDbEntity
  8
0
  6
Continuous
 62
     7
370
    25
100
AcDbLine
 10
98.0838470531
 20
128.1835818789
 30
0.0
 11
102.432795651
 21
128.1835818789
 31
0.0
  0
LINE
  5
2B4
330
1F
100
AcDbEntity
  8
0
  6
Continuous
 62
     7
370
    25
100
AcDbLine
 10
119.4490090383
 20
132.4165659152
 30
0.0
 11
119.4490090383
 21
128.8505969695
 31
0.0
  0
LINE
  5
2B5
330
1F
100
AcDbEntity
  8
0
  6
Continuous
 62
     7
370
    25
100
AcDbLine
 10
119.6249712629
 20
132.9835811756
 30
0.0
 11
119.6249712629
 21
128.1835818789
 31
0.0
  0
LINE
  5
2B6
330
1F
100
AcDbEntity
  8
0
  6
Continuous
 62
     7
370
    25
100
AcDbLine
 10
119.5391387118
 20
128.1835818789
 30
0.0
 11
119.6249712629
 21
128.1835818789
 31
0.0
  0
LINE
  5
2B7
330
1F
100
AcDbEntity
  8
0
  6
Continuous
 62
     7
370
    25
100
AcDbLine
 10
119.5391387118
 20
132.9835811756
 30
0.0
 11
119.6249712629
 21
132.9835811756
 31
0.0
  0
LINE
  5
2B8
330
1F
100
AcDbEntity
  8
0
  6
Continuous
 62
     7
370
    25
100
AcDbLine
 10
122.1939724309
 20
132.9835811756
 30
0.0
 11
122.1939724309
 21
128.1835818789
 31
0.0
  0
LINE
  5
2B9
330
1F
100
AcDbEntity
  8
0
  6
Continuous
 62
     7
370
    25
100
AcDbLine
 10
119.6249712629
 20
128.1835818789
 30
0.0
 11
122.1939724309
 21
128.1835818789
 31
0.0
  0
LINE
  5
2BA
330
1F
100
AcDbEntity
  8
0
  6
Continuous
 62
     7
370
    25
100
AcDbLine
 10
119.6249712629
 20
132.9835811756
 30
0.0
 11
122.1939724309
 21
132.9835811756
 31
0.0
  0
LINE
  5
2BB
330
1F
100
AcDbEntity
  8
0
  6
Continuous
 62
     7
370
    25
100
AcDbLine
 10
119.5990879459
 20
132.9835811756
 30
0.0
 11
119.5990879459
 21
133.1335818521
 31
0.0
  0
LINE
  5
2BC
330
1F
100
AcDbEntity
  8
0
  6
Continuous
 62
     7
370
    25
100
AcDbLine
 10
119.5990879459
 20
133.1335818521
 30
0.0
 11
119.5304233951
 21
133.1335818521
 31
0.0
  0
LINE
  5
2BD
330
1F
100
AcDbEntity
  8
0
  6
Continuous
 62
     7
370
    25
100
AcDbLine
 10
122.1680909766
 20
132.9835811756
 30
0.0
 11
122.1680909766
 21
133.1335818521
 31
0.0
  0
LINE
  5
2BE
330
1F
100
AcDbEntity
  8
0
  6
Continuous
 62
     7
370
    25
100
AcDbLine
 10
122.1680909766
 20
133.1335818521
 30
0.0
 11
119.5990879459
 21
133.1335818521
 31
0.0
  0
ELLIPSE
  5
2BF
330
1F
100
AcDbEntity
  8
0
  6
Continuous
 62
     7
370
    25
100
AcDbEllipse
 10
87.3556873872
 20
132.4165666296
 30
0.0
 11
0.0
 21
0.2007639675086637
 31
0.0
210
0.0
220
0.0
230
1.0
 40
0.9810602622
 41
0.2965242256713642
 42
0.4590649881897516
  0
ELLIPSE
  5
2C0
330
1F
100
AcDbEntity
  8
0
  6
Continuous
 62
     7
370
    25
100
AcDbEllipse
 10
87.3556873872
 20
128.8505968319
 30
0.0
 11
0.0
 21
0.2007639675086921
 31
0.0
210
0.0
220
0.0
230
1.0
 40
0.9810602622
 41
2.682527665400048
 42
2.845068427935183
  0
ELLIPSE
  5
2C1
330
1F
100
AcDbEntity
  8
0
  6
Continuous
 62
     7
370
    25
100
AcDbEllipse
 10
87.317733145
 20
132.4165666296
 30
0.0
 11
0.0
 21
0.2007639675086637
 31
0.0
210
0.0
220
0.0
230
1.0
 40
0.9810602622
 41
0.4590649881897248
 42
1.570796326794897
  0
LINE
  5
2C2
330
1F
100
AcDbEntity
  8
0
  6
Continuous
 62
     7
370
    25
100
AcDbLine
 10
87.1034086121
 20
132.4078170709
 30
0.0
 11
87.1207721902
 21
132.4165659152
 31
0.0
  0
LINE
  5
2C3
330
1F
100
AcDbEntity
  8
0
  6
Continuous
 62
     7
370
    25
100
AcDbLine
 10
87.1207721902
 20
128.8505969695
 30
0.0
 11
87.1034086121
 21
128.8593458138
 31
0.0
  0
ELLIPSE
  5
2C4
330
1F
100
AcDbEntity
  8
0
  6
Continuous
 62
     7
370
    25
100
AcDbEllipse
 10
87.317733145
 20
128.8505968319
 30
0.0
 11
0.0
 21
0.2007639675086921
 31
0.0
210
0.0
220
0.0
230
1.0
 40
0.9810602622
 41
1.570796326794897
 42
2.682527665399921
  0
LINE
  5
2C5
330
1F
100
AcDbEntity
  8
0
  6
Continuous
 62
     7
370
    25
100
AcDbLine
 10
87.1207721902
 20
128.8505969695
 30
0.0
 11
87.1207721902
 21
132.4165659152
 31
0.0
  0
LINE
  5
2C6
330
1F
100
AcDbEntity
  8
0
  6
Continuous
 62
     7
370
    25
100
AcDbLine
 10
82.4137971175
 20
128.7086112551
 30
0.0
 11
82.4137971175
 21
128.1835818789
 31
0.0
  0
ELLIPSE
  5
2C7
330
1F
100
AcDbEntity
  8
0
  6
Continuous
 62
     7
370
    25
100
AcDbEllipse
 10
80.7285079777
 20
130.3335817308
 30
0.0
 11
0.0
 21
2.400000000000006
 31
0.0
210
0.0
220
0.0
230
1.0
 40
0.9541888941
 41
3.968614102359612
 42
6.283185307179586
  0
LINE
  5
2C8
330
1F
100
AcDbEntity
  8
0
  6
Continuous
 62
     7
370
    25
100
AcDbLine
 10
80.0605759395
 20
132.7335825316
 30
0.0
 11
80.7285055888
 21
132.7335825316
 31
0.0
  0
ELLIPSE
  5
2C9
330
1F
100
AcDbEntity
  8
0
  6
Continuous
 62
     7
370
    25
100
AcDbEllipse
 10
80.0605757518
 20
130.3335817308
 30
0.0
 11
0.0
 21
2.400000000000006
 31
0.0
210
0.0
220
0.0
230
1.0
 40
0.9541888941
 41
0.0
 42
2.420652874259398
  0
LINE
  5
2CA
330
1F
100
AcDbEntity
  8
0
  6
Continuous
 62
     7
370
    25
100
AcDbLine
 10
78.5489350928
 20
128.1835818789
 30
0.0
 11
78.5489350928
 21
128.5307360939
 31
0.0
  0
LINE
  5
2CB
330
1F
100
AcDbEntity
  8
0
  6
Continuous
 62
     7
370
    25
100
AcDbLine
 10
75.475332178
 20
128.1835818789
 30
0.0
 11
75.475332178
 21
132.9835811756
 31
0.0
  0
ELLIPSE
  5
2CC
330
1F
100
AcDbEntity
  8
0
  6
Continuous
 62
     7
370
    25
100
AcDbEllipse
 10
86.2583950634
 20
132.1335817308
 30
0.0
 11
0.0
 21
0.2999999999999829
 31
0.0
210
0.0
220
0.0
230
1.0
 40
0.9670370765
 41
4.712388980384703
 42
6.283185307179586
  0
LINE
  5
2CD
330
1F
100
AcDbEntity
  8
0
  6
Continuous
 62
     7
370
    25
100
AcDbLine
 10
86.2583935631
 20
132.4335811786
 30
0.0
 11
83.9918375386
 21
132.4335811786
 31
0.0
  0
ELLIPSE
  5
2CE
330
1F
100
AcDbEntity
  8
0
  6
Continuous
 62
     7
370
    25
100
AcDbEllipse
 10
83.9918339963
 20
132.1335817308
 30
0.0
 11
0.0
 21
0.2999999999999829
 31
0.0
210
0.0
220
0.0
230
1.0
 40
0.9541888965
 41
0.0
 42
1.570796326794897
  0
LINE
  5
2CF
330
1F
100
AcDbEntity
  8
0
  6
Continuous
 62
     7
370
    25
100
AcDbLine
 10
83.7055787814
 20
132.1335816882
 30
0.0
 11
83.7055787814
 21
129.2335810266
 31
0.0
  0
ELLIPSE
  5
2D0
330
1F
100
AcDbEntity
  8
0
  6
Continuous
 62
     7
370
    25
100
AcDbEllipse
 10
83.9918339963
 20
129.2335817308
 30
0.0
 11
0.0
 21
0.3000000000000114
 31
0.0
210
0.0
220
0.0
230
1.0
 40
0.9541888965
 41
1.570796326794897
 42
3.141592653589793
  0
LINE
  5
2D1
330
1F
100
AcDbEntity
  8
0
  6
Continuous
 62
     7
370
    25
100
AcDbLine
 10
86.2583935631
 20
128.9335815362
 30
0.0
 11
83.9918375386
 21
128.9335815362
 31
0.0
  0
ELLIPSE
  5
2D2
330
1F
100
AcDbEntity
  8
0
  6
Continuous
 62
     7
370
    25
100
AcDbEllipse
 10
86.2583950634
 20
129.2335817308
 30
0.0
 11
0.0
 21
0.3000000000000114
 31
0.0
210
0.0
220
0.0
230
1.0
 40
0.9670370765
 41
3.141592653589793
 42
4.712388980384703
  0
LINE
  5
2D3
330
1F
100
AcDbEntity
  8
0
  6
Continuous
 62
     7
370
    25
100
AcDbLine
 10
86.5485042704
 20
129.2335810266
 30
0.0
 11
86.5485042704
 21
132.1335816882
 31
0.0
  0
LINE
  5
2D4
330
1F
100
AcDbEntity
  8
0
  6
Continuous
 62
     7
370
    25
100
AcDbLine
 10
78.5489350928
 20
128.1835818789
 30
0.0
 11
75.475332178
 21
128.1835818789
 31
0.0
  0
LINE
  5
2D5
330
1F
100
AcDbEntity
  8
0
  6
Continuous
 62
     7
370
    25
100
AcDbLine
 10
86.9854472948
 20
128.1835818789
 30
0.0
 11
82.4137971175
 21
128.1835818789
 31
0.0
  0
LINE
  5
2D6
330
1F
100
AcDbEntity
  8
0
  6
Continuous
 62
     7
370
    25
100
AcDbLine
 10
75.475332178
 20
132.9835811756
 30
0.0
 11
86.9854472948
 21
132.9835811756
 31
0.0
  0
LINE
  5
2D7
330
1F
100
AcDbEntity
  8
0
  6
Continuous
 62
     7
370
    25
100
AcDbLine
 10
75.5095303429
 20
132.9835811756
 30
0.0
 11
75.5095303429
 21
133.1335818521
 31
0.0
  0
LINE
  5
2D8
330
1F
100
AcDbEntity
  8
0
  6
Continuous
 62
     7
370
    25
100
AcDbLine
 10
75.5095303429
 20
133.1335818521
 30
0.0
 11
87.0114274693
 21
133.1335818521
 31
0.0
  0
ELLIPSE
  5
2D9
330
1F
100
AcDbEntity
  8
0
  6
Continuous
 62
     7
370
    25
100
AcDbEllipse
 10
84.009466693
 20
129.2335817308
 30
0.0
 11
0.0
 21
0.3000000000000114
 31
0.0
210
0.0
220
0.0
230
1.0
 40
0.9541888965
 41
1.570796326794897
 42
3.141592653589694
  0
LINE
  5
2DA
330
1F
100
AcDbEntity
  8
0
  6
Continuous
 62
     7
370
    25
100
AcDbLine
 10
83.7232068551
 20
132.1335816882
 30
0.0
 11
83.7232068551
 21
129.2335810266
 31
0.0
  0
ELLIPSE
  5
2DB
330
1F
100
AcDbEntity
  8
0
  6
Continuous
 62
     7
370
    25
100
AcDbEllipse
 10
84.009466693
 20
132.1335817308
 30
0.0
 11
0.0
 21
0.2999999999999829
 31
0.0
210
0.0
220
0.0
230
1.0
 40
0.9541888965
 41
0.0
 42
1.570796326794897
  0
LINE
  5
2DC
330
1F
100
AcDbEntity
  8
0
  6
Continuous
 62
     7
370
    25
100
AcDbLine
 10
122.5569293273
 20
132.9835811756
 30
0.0
 11
122.5569293273
 21
128.1835818789
 31
0.0
  0
LINE
  5
2DD
330
1F
100
AcDbEntity
  8
0
  6
Continuous
 62
     7
370
    25
100
AcDbLine
 10
122.1939724309
 20
128.1835818789
 30
0.0
 11
122.5569293273
 21
128.1835818789
 31
0.0
  0
LINE
  5
2DE
330
1F
100
AcDbEntity
  8
0
  6
Continuous
 62
     7
370
    25
100
AcDbLine
 10
122.1939724309
 20
132.9835811756
 30
0.0
 11
122.5569293273
 21
132.9835811756
 31
0.0
  0
LINE
  5
2DF
330
1F
100
AcDbEntity
  8
0
  6
Continuous
 62
     7
370
    25
100
AcDbLine
 10
122.4584568662
 20
132.9835811756
 30
0.0
 11
122.4584568662
 21
133.1335818521
 31
0.0
  0
LINE
  5
2E0
330
1F
100
AcDbEntity
  8
0
  6
Continuous
 62
     7
370
    25
100
AcDbLine
 10
122.4584568662
 20
133.1335818521
 30
0.0
 11
122.1680909766
 21
133.1335818521
 31
0.0
  0
LINE
  5
2E1
330
1F
100
AcDbEntity
  8
0
  6
Continuous
 62
     7
370
    25
100
AcDbLine
 10
91.5777095033
 20
129.8835808537
 30
0.0
 11
91.7166665567
 21
129.8835808537
 31
0.0
  0
LINE
  5
2E2
330
1F
100
AcDbEntity
  8
0
  6
Continuous
 62
     7
370
    25
100
AcDbLine
 10
91.7166665567
 20
131.3835820309
 30
0.0
 11
91.5777095033
 21
131.3835820309
 31
0.0
  0
LINE
  5
2E3
330
1F
100
AcDbEntity
  8
0
  6
Continuous
 62
     7
370
    25
100
AcDbLine
 10
123.1618717683
 20
132.9835811756
 30
0.0
 11
123.1618717683
 21
131.3835820309
 31
0.0
  0
LINE
  5
2E4
330
1F
100
AcDbEntity
  8
0
  6
Continuous
 62
     7
370
    25
100
AcDbLine
 10
123.0686370654
 20
131.3835820309
 30
0.0
 11
123.1618717683
 21
131.3835820309
 31
0.0
  0
LINE
  5
2E5
330
1F
100
AcDbEntity
  8
0
  6
Continuous
 62
     7
370
    25
100
AcDbLine
 10
123.0686370654
 20
129.8835808537
 30
0.0
 11
123.0686370654
 21
131.3835820309
 31
0.0
  0
LINE
  5
2E6
330
1F
100
AcDbEntity
  8
0
  6
Continuous
 62
     7
370
    25
100
AcDbLine
 10
123.1618717683
 20
129.8835808537
 30
0.0
 11
123.0686370654
 21
129.8835808537
 31
0.0
  0
LINE
  5
2E7
330
1F
100
AcDbEntity
  8
0
  6
Continuous
 62
     7
370
    25
100
AcDbLine
 10
123.1618717683
 20
129.8835808537
 30
0.0
 11
123.1618717683
 21
128.1835818789
 31
0.0
  0
LINE
  5
2E8
330
1F
100
AcDbEntity
  8
0
  6
Continuous
 62
     7
370
    25
100
AcDbLine
 10
123.1618717683
 20
128.1835818789
 30
0.0
 11
122.5569293273
 21
128.1835818789
 31
0.0
  0
LINE
  5
2E9
330
1F
100
AcDbEntity
  8
0
  6
Continuous
 62
     7
370
    25
100
AcDbLine
 10
122.5569293273
 20
132.9835811756
 30
0.0
 11
123.1618717683
 21
132.9835811756
 31
0.0
  0
LINE
  5
2EA
330
1F
100
AcDbEntity
  8
0
  6
Continuous
 62
     7
370
    25
100
AcDbLine
 10
123.0725802851
 20
133.1335818521
 30
0.0
 11
123.0725802851
 21
132.9835811756
 31
0.0
  0
LINE
  5
2EB
330
1F
100
AcDbEntity
  8
0
  6
Continuous
 62
     7
370
    25
100
AcDbLine
 10
123.0725802851
 20
133.1335818521
 30
0.0
 11
122.4584568662
 21
133.1335818521
 31
0.0
  0
LINE
  5
2EC
330
1F
100
AcDbEntity
  8
0
  6
Continuous
 62
     7
370
    25
100
AcDbLine
 10
83.7232068551
 20
132.1335816882
 30
0.0
 11
83.7055787814
 21
132.1335816882
 31
0.0
  0
LINE
  5
2ED
330
1F
100
AcDbEntity
  8
0
  6
Continuous
 62
     7
370
    25
100
AcDbLine
 10
83.7055787814
 20
129.2335810266
 30
0.0
 11
83.7232068551
 21
129.2335810266
 31
0.0
  0
ELLIPSE
  5
2EE
330
1F
100
AcDbEntity
  8
0
  6
Continuous
 62
     7
370
    25
100
AcDbEllipse
 10
80.9811269566
 20
130.3335817308
 30
0.0
 11
0.0
 21
2.400000000000006
 31
0.0
210
0.0
220
0.0
230
1.0
 40
0.811159487
 41
3.89558048831485
 42
3.968614102359618
  0
LINE
  5
2EF
330
1F
100
AcDbEntity
  8
0
  6
Continuous
 62
     7
370
    25
100
AcDbLine
 10
78.648929335
 20
128.4584002696
 30
0.0
 11
78.648929335
 21
128.1835818789
 31
0.0
  0
ELLIPSE
  5
2F0
330
1F
100
AcDbEntity
  8
0
  6
Continuous
 62
     7
370
    25
100
AcDbEllipse
 10
80.0782084498
 20
130.3335817308
 30
0.0
 11
0.0
 21
2.400000000000006
 31
0.0
210
0.0
220
0.0
230
1.0
 40
0.9541888941
 41
0.0
 42
2.46758344048231
  0
LINE
  5
2F1
330
1F
100
AcDbEntity
  8
0
  6
Continuous
 62
     7
370
    25
100
AcDbLine
 10
82.3138028754
 20
128.1835818789
 30
0.0
 11
82.3138028754
 21
128.5840654872
 31
0.0
  0
LINE
  5
2F2
330
1F
100
AcDbEntity
  8
0
  6
Continuous
 62
     7
370
    25
100
AcDbLine
 10
78.648929335
 20
128.1835818789
 30
0.0
 11
82.3138028754
 21
128.1835818789
 31
0.0
  0
LINE
  5
2F3
330
1F
100
AcDbEntity
  8
0
  6
Continuous
 62
     7
370
    25
100
AcDbLine
 10
82.3138028754
 20
128.1835818789
 30
0.0
 11
82.4137971175
 21
128.1835818789
 31
0.0
  0
LINE
  5
2F4
330
1F
100
AcDbEntity
  8
0
  6
Continuous
 62
     7
370
    25
100
AcDbLine
 10
91.8673098458
 20
129.8835808537
 30
0.0
 11
91.8673098458
 21
131.3835820309
 31
0.0
  0
ELLIPSE
  5
2F5
330
1F
100
AcDbEntity
  8
0
  6
Continuous
 62
     7
370
    25
100
AcDbEllipse
 10
80.3841793065
 20
130.3335817308
 30
0.0
 11
2.780294233628211
 21
0.0
 31
0.0
210
0.0
220
0.0
230
1.0
 40
0.86321799
 41
3.99144920105431
 42
4.03837976727722
  0
LINE
  5
2F6
330
1F
100
AcDbEntity
  8
0
  6
Continuous
 62
     7
370
    25
100
AcDbLine
 10
93.906313963
 20
132.5835818551
 30
0.0
 11
91.9484243167
 21
132.5835818551
 31
0.0
  0
LINE
  5
2F7
330
1F
100
AcDbEntity
  8
0
  6
Continuous
 62
     7
370
    25
100
AcDbLine
 10
91.9484243167
 20
132.9835811756
 30
0.0
 11
93.906313963
 21
132.9835811756
 31
0.0
  0
LINE
  5
2F8
330
1F
100
AcDbEntity
  8
0
  6
Continuous
 62
     7
370
    25
100
AcDbLine
 10
91.9484243167
 20
128.6835810296
 30
0.0
 11
93.906313963
 21
128.6835810296
 31
0.0
  0
LINE
  5
2F9
330
1F
100
AcDbEntity
  8
0
  6
Continuous
 62
     7
370
    25
100
AcDbLine
 10
93.906313963
 20
128.1835818789
 30
0.0
 11
91.9484243167
 21
128.1835818789
 31
0.0
  0
LINE
  5
2FA
330
1F
100
AcDbEntity
  8
0
  6
Continuous
 62
     7
370
    25
100
AcDbLine
 10
91.8673098458
 20
133.1335818521
 30
0.0
 11
94.0032497419
 21
133.1335818521
 31
0.0
  0
LINE
  5
2FB
330
1F
100
AcDbEntity
  8
0
  6
Continuous
 62
     7
370
    25
100
AcDbLine
 10
78.5489350928
 20
128.1835818789
 30
0.0
 11
78.648929335
 21
128.1835818789
 31
0.0
  0
LINE
  5
2FC
330
1F
100
AcDbEntity
  8
0
  6
Continuous
 62
     7
370
    25
100
AcDbLine
 10
126.2526762111
 20
128.1835818789
 30
0.0
 11
126.2526762111
 21
129.8835808537
 31
0.0
  0
LINE
  5
2FD
330
1F
100
AcDbEntity
  8
0
  6
Continuous
 62
     7
370
    25
100
AcDbLine
 10
126.2526762111
 20
129.8835808537
 30
0.0
 11
126.2604508919
 21
129.8835808537
 31
0.0
  0
LINE
  5
2FE
330
1F
100
AcDbEntity
  8
0
  6
Continuous
 62
     7
370
    25
100
AcDbLine
 10
126.2604508919
 20
129.8835808537
 30
0.0
 11
126.2604508919
 21
131.3835820309
 31
0.0
  0
LINE
  5
2FF
330
1F
100
AcDbEntity
  8
0
  6
Continuous
 62
     7
370
    25
100
AcDbLine
 10
126.2604508919
 20
131.3835820309
 30
0.0
 11
126.2526762111
 21
131.3835820309
 31
0.0
  0
LINE
  5
300
330
1F
100
AcDbEntity
  8
0
  6
Continuous
 62
     7
370
    25
100
AcDbLine
 10
126.2526762111
 20
131.3835820309
 30
0.0
 11
126.2526762111
 21
132.9835811756
 31
0.0
  0
LINE
  5
301
330
1F
100
AcDbEntity
  8
0
  6
Continuous
 62
     7
370
    25
100
AcDbLine
 10
127.0093310995
 20
128.1835818789
 30
0.0
 11
127.0093310995
 21
132.9835811756
 31
0.0
  0
LINE
  5
302
330
1F
100
AcDbEntity
  8
0
  6
Continuous
 62
     7
370
    25
100
AcDbLine
 10
127.0093310995
 20
128.1835818789
 30
0.0
 11
126.2526762111
 21
128.1835818789
 31
0.0
  0
LINE
  5
303
330
1F
100
AcDbEntity
  8
0
  6
Continuous
 62
     7
370
    25
100
AcDbLine
 10
126.2526762111
 20
132.9835811756
 30
0.0
 11
127.0093310995
 21
132.9835811756
 31
0.0
  0
LINE
  5
304
330
1F
100
AcDbEntity
  8
0
  6
Continuous
 62
     7
370
    25
100
AcDbLine
 10
130.2533902598
 20
128.1835818789
 30
0.0
 11
130.2533902598
 21
132.9835811756
 31
0.0
  0
LINE
  5
305
330
1F
100
AcDbEntity
  8
0
  6
Continuous
 62
     7
370
    25
100
AcDbLine
 10
130.2533902598
 20
128.1835818789
 30
0.0
 11
127.0093310995
 21
128.1835818789
 31
0.0
  0
LINE
  5
306
330
1F
100
AcDbEntity
  8
0
  6
Continuous
 62
     7
370
    25
100
AcDbLine
 10
127.0093310995
 20
132.9835811756
 30
0.0
 11
130.2533902598
 21
132.9835811756
 31
0.0
  0
LINE
  5
307
330
1F
100
AcDbEntity
  8
0
  6
Continuous
 62
     7
370
    25
100
AcDbLine
 10
126.9519709421
 20
132.9835811756
 30
0.0
 11
126.9519709421
 21
133.1335818521
 31
0.0
  0
LINE
  5
308
330
1F
100
AcDbEntity
  8
0
  6
Continuous
 62
     7
370
    25
100
AcDbLine
 10
126.3466447962
 20
132.9835811756
 30
0.0
 11
126.3466447962
 21
133.1335818521
 31
0.0
  0
LINE
  5
309
330
1F
100
AcDbEntity
  8
0
  6
Continuous
 62
     7
370
    25
100
AcDbLine
 10
126.3466447962
 20
133.1335818521
 30
0.0
 11
126.9519709421
 21
133.1335818521
 31
0.0
  0
LINE
  5
30A
330
1F
100
AcDbEntity
  8
0
  6
Continuous
 62
     7
370
    25
100
AcDbLine
 10
130.1960282398
 20
132.9835811756
 30
0.0
 11
130.1960282398
 21
133.1335818521
 31
0.0
  0
LINE
  5
30B
330
1F
100
AcDbEntity
  8
0
  6
Continuous
 62
     7
370
    25
100
AcDbLine
 10
126.9519709421
 20
133.1335818521
 30
0.0
 11
130.1960282398
 21
133.1335818521
 31
0.0
  0
LINE
  5
30C
330
1F
100
AcDbEntity
  8
0
  6
Continuous
 62
     7
370
    25
100
AcDbLine
 10
126.2269307298
 20
129.8835808537
 30
0.0
 11
126.2269307298
 21
131.3835820309
 31
0.0
  0
LINE
  5
30D
330
1F
100
AcDbEntity
  8
0
  6
Continuous
 62
     7
370
    25
100
AcDbLine
 10
126.0848984493
 20
132.9835811756
 30
0.0
 11
126.0848984493
 21
131.3835820309
 31
0.0
  0
LINE
  5
30E
330
1F
100
AcDbEntity
  8
0
  6
Continuous
 62
     7
370
    25
100
AcDbLine
 10
126.2526762111
 20
131.3835820309
 30
0.0
 11
126.0848984493
 21
131.3835820309
 31
0.0
  0
LINE
  5
30F
330
1F
100
AcDbEntity
  8
0
  6
Continuous
 62
     7
370
    25
100
AcDbLine
 10
126.0848984493
 20
132.9835811756
 30
0.0
 11
126.2526762111
 21
132.9835811756
 31
0.0
  0
LINE
  5
310
330
1F
100
AcDbEntity
  8
0
  6
Continuous
 62
     7
370
    25
100
AcDbLine
 10
126.0848984493
 20
129.8835808537
 30
0.0
 11
126.0848984493
 21
128.1835818789
 31
0.0
  0
LINE
  5
311
330
1F
100
AcDbEntity
  8
0
  6
Continuous
 62
     7
370
    25
100
AcDbLine
 10
126.0848984493
 20
129.8835808537
 30
0.0
 11
126.2526762111
 21
129.8835808537
 31
0.0
  0
LINE
  5
312
330
1F
100
AcDbEntity
  8
0
  6
Continuous
 62
     7
370
    25
100
AcDbLine
 10
126.2526762111
 20
128.1835818789
 30
0.0
 11
126.0848984493
 21
128.1835818789
 31
0.0
  0
LINE
  5
313
330
1F
100
AcDbEntity
  8
0
  6
Continuous
 62
     7
370
    25
100
AcDbLine
 10
126.1608571184
 20
132.9835811756
 30
0.0
 11
126.1608571184
 21
133.1335818521
 31
0.0
  0
LINE
  5
314
330
1F
100
AcDbEntity
  8
0
  6
Continuous
 62
     7
370
    25
100
AcDbLine
 10
126.1608571184
 20
133.1335818521
 30
0.0
 11
126.3466447962
 21
133.1335818521
 31
0.0
  0
LINE
  5
315
330
1F
100
AcDbEntity
  8
0
  6
Continuous
 62
     7
370
    25
100
AcDbLine
 10
123.0725802851
 20
129.8835808537
 30
0.0
 11
123.0725802851
 21
131.3835820309
 31
0.0
  0
LINE
  5
316
330
1F
100
AcDbEntity
  8
0
  6
Continuous
 62
     7
370
    25
100
AcDbLine
 10
75.2790764345
 20
128.1835818789
 30
0.0
 11
75.2790764345
 21
132.9835811756
 31
0.0
  0
LINE
  5
317
330
1F
100
AcDbEntity
  8
0
  6
Continuous
 62
     7
370
    25
100
AcDbLine
 10
75.475332178
 20
128.1835818789
 30
0.0
 11
75.2790764345
 21
128.1835818789
 31
0.0
  0
LINE
  5
318
330
1F
100
AcDbEntity
  8
0
  6
Continuous
 62
     7
370
    25
100
AcDbLine
 10
75.2790764345
 20
132.9835811756
 30
0.0
 11
75.475332178
 21
132.9835811756
 31
0.0
  0
LINE
  5
319
330
1F
100
AcDbEntity
  8
0
  6
Continuous
 62
     7
370
    25
100
AcDbLine
 10
123.1695048881
 20
129.8835808537
 30
0.0
 11
123.1618717683
 21
129.8835808537
 31
0.0
  0
LINE
  5
31A
330
1F
100
AcDbEntity
  8
0
  6
Continuous
 62
     7
370
    25
100
AcDbLine
 10
123.1618717683
 20
128.1835818789
 30
0.0
 11
123.1695048881
 21
128.1835818789
 31
0.0
  0
LINE
  5
31B
330
1F
100
AcDbEntity
  8
0
  6
Continuous
 62
     7
370
    25
100
AcDbLine
 10
123.1618717683
 20
131.3835820309
 30
0.0
 11
123.1695048881
 21
131.3835820309
 31
0.0
  0
LINE
  5
31C
330
1F
100
AcDbEntity
  8
0
  6
Continuous
 62
     7
370
    25
100
AcDbLine
 10
123.1695048881
 20
132.9835811756
 30
0.0
 11
123.1618717683
 21
132.9835811756
 31
0.0
  0
LINE
  5
31D
330
1F
100
AcDbEntity
  8
0
  6
Continuous
 62
     7
370
    25
100
AcDbLine
 10
75.3786981476
 20
132.9835811756
 30
0.0
 11
75.3786981476
 21
133.1335818521
 31
0.0
  0
LINE
  5
31E
330
1F
100
AcDbEntity
  8
0
  6
Continuous
 62
     7
370
    25
100
AcDbLine
 10
75.3786981476
 20
133.1335818521
 30
0.0
 11
75.5095303429
 21
133.1335818521
 31
0.0
  0
LINE
  5
31F
330
1F
100
AcDbEntity
  8
0
  6
Continuous
 62
     7
370
    25
100
AcDbLine
 10
126.1608571184
 20
129.8835808537
 30
0.0
 11
126.1608571184
 21
131.3835820309
 31
0.0
  0
LINE
  5
320
330
1F
100
AcDbEntity
  8
0
  6
Continuous
 62
     7
370
    25
100
AcDbLine
 10
75.1775101198
 20
128.1835818789
 30
0.0
 11
75.1775101198
 21
132.9835811756
 31
0.0
  0
LINE
  5
321
330
1F
100
AcDbEntity
  8
0
  6
Continuous
 62
     7
370
    25
100
AcDbLine
 10
75.2790764345
 20
128.1835818789
 30
0.0
 11
75.1775101198
 21
128.1835818789
 31
0.0
  0
LINE
  5
322
330
1F
100
AcDbEntity
  8
0
  6
Continuous
 62
     7
370
    25
100
AcDbLine
 10
75.1775101198
 20
132.9835811756
 30
0.0
 11
75.2790764345
 21
132.9835811756
 31
0.0
  0
LINE
  5
323
330
1F
100
AcDbEntity
  8
0
  6
Continuous
 62
     7
370
    25
100
AcDbLine
 10
75.2833456171
 20
132.9835811756
 30
0.0
 11
75.2833456171
 21
133.1335818521
 31
0.0
  0
LINE
  5
324
330
1F
100
AcDbEntity
  8
0
  6
Continuous
 62
     7
370
    25
100
AcDbLine
 10
75.2833456171
 20
133.1335818521
 30
0.0
 11
75.3786981476
 21
133.1335818521
 31
0.0
  0
LINE
  5
325
330
1F
100
AcDbEntity
  8
0
  6
Continuous
 62
     7
370
    25
100
AcDbLine
 10
126.0566477103
 20
132.9835811756
 30
0.0
 11
126.0566477103
 21
131.3835820309
 31
0.0
  0
LINE
  5
326
330
1F
100
AcDbEntity
  8
0
  6
Continuous
 62
     7
370
    25
100
AcDbLine
 10
126.0566477103
 20
131.3835820309
 30
0.0
 11
126.0848984493
 21
131.3835820309
 31
0.0
  0
LINE
  5
327
330
1F
100
AcDbEntity
  8
0
  6
Continuous
 62
     7
370
    25
100
AcDbLine
 10
126.0848984493
 20
132.9835811756
 30
0.0
 11
126.0566477103
 21
132.9835811756
 31
0.0
  0
LINE
  5
328
330
1F
100
AcDbEntity
  8
0
  6
Continuous
 62
     7
370
    25
100
AcDbLine
 10
126.0566477103
 20
129.8835808537
 30
0.0
 11
126.0566477103
 21
128.1835818789
 31
0.0
  0
LINE
  5
329
330
1F
100
AcDbEntity
  8
0
  6
Continuous
 62
     7
370
    25
100
AcDbLine
 10
126.0848984493
 20
129.8835808537
 30
0.0
 11
126.0566477103
 21
129.8835808537
 31
0.0
  0
LINE
  5
32A
330
1F
100
AcDbEntity
  8
0
  6
Continuous
 62
     7
370
    25
100
AcDbLine
 10
126.0566477103
 20
128.1835818789
 30
0.0
 11
126.0848984493
 21
128.1835818789
 31
0.0
  0
LINE
  5
32B
330
1F
100
AcDbEntity
  8
0
  6
Continuous
 62
     7
370
    25
100
AcDbLine
 10
125.7006235791
 20
132.9835811756
 30
0.0
 11
125.7006235791
 21
133.1335818521
 31
0.0
  0
LINE
  5
32C
330
1F
100
AcDbEntity
  8
0
  6
Continuous
 62
     7
370
    25
100
AcDbLine
 10
126.1608571184
 20
133.1335818521
 30
0.0
 11
125.7006235791
 21
133.1335818521
 31
0.0
  0
LINE
  5
32D
330
1F
100
AcDbEntity
  8
0
  6
Continuous
 62
     7
370
    25
100
AcDbLine
 10
125.9189721567
 20
129.8835808537
 30
0.0
 11
125.9189721567
 21
131.3835820309
 31
0.0
  0
LINE
  5
32E
330
1F
100
AcDbEntity
  8
0
  6
Continuous
 62
     7
370
    25
100
AcDbLine
 10
125.6097190452
 20
132.9835811756
 30
0.0
 11
125.6097190452
 21
132.5835818551
 31
0.0
  0
LINE
  5
32F
330
1F
100
AcDbEntity
  8
0
  6
Continuous
 62
     7
370
    25
100
AcDbLine
 10
125.6010037286
 20
131.3835820309
 30
0.0
 11
125.7066995276
 21
131.3835820309
 31
0.0
  0
LINE
  5
330
330
1F
100
AcDbEntity
  8
0
  6
Continuous
 62
     7
370
    25
100
AcDbLine
 10
125.6010037286
 20
132.5835818551
 30
0.0
 11
125.6010037286
 21
131.3835820309
 31
0.0
  0
LINE
  5
331
330
1F
100
AcDbEntity
  8
0
  6
Continuous
 62
     7
370
    25
100
AcDbLine
 10
125.7957861198
 20
131.3835820309
 30
0.0
 11
126.0566477103
 21
131.3835820309
 31
0.0
  0
LINE
  5
332
330
1F
100
AcDbEntity
  8
0
  6
Continuous
 62
     7
370
    25
100
AcDbLine
 10
126.0566477103
 20
132.9835811756
 30
0.0
 11
125.6097190452
 21
132.9835811756
 31
0.0
  0
LINE
  5
333
330
1F
100
AcDbEntity
  8
0
  6
Continuous
 62
     7
370
    25
100
AcDbLine
 10
125.6097190452
 20
128.6835810296
 30
0.0
 11
125.6097190452
 21
128.1835818789
 31
0.0
  0
LINE
  5
334
330
1F
100
AcDbEntity
  8
0
  6
Continuous
 62
     7
370
    25
100
AcDbLine
 10
125.6010037286
 20
129.8835808537
 30
0.0
 11
125.6010037286
 21
128.6835810296
 31
0.0
  0
LINE
  5
335
330
1F
100
AcDbEntity
  8
0
  6
Continuous
 62
     7
370
    25
100
AcDbLine
 10
125.7066995276
 20
129.8835808537
 30
0.0
 11
125.6010037286
 21
129.8835808537
 31
0.0
  0
LINE
  5
336
330
1F
100
AcDbEntity
  8
0
  6
Continuous
 62
     7
370
    25
100
AcDbLine
 10
126.0566477103
 20
129.8835808537
 30
0.0
 11
125.7957861198
 21
129.8835808537
 31
0.0
  0
LINE
  5
337
330
1F
100
AcDbEntity
  8
0
  6
Continuous
 62
     7
370
    25
100
AcDbLine
 10
125.6097190452
 20
128.1835818789
 30
0.0
 11
126.0566477103
 21
128.1835818789
 31
0.0
  0
LINE
  5
338
330
1F
100
AcDbEntity
  8
0
  6
Continuous
 62
     7
370
    25
100
AcDbLine
 10
130.5681903286
 20
128.1835818789
 30
0.0
 11
130.5681903286
 21
132.9835811756
 31
0.0
  0
LINE
  5
339
330
1F
100
AcDbEntity
  8
0
  6
Continuous
 62
     7
370
    25
100
AcDbLine
 10
130.5681903286
 20
128.1835818789
 30
0.0
 11
130.2533902598
 21
128.1835818789
 31
0.0
  0
LINE
  5
33A
330
1F
100
AcDbEntity
  8
0
  6
Continuous
 62
     7
370
    25
100
AcDbLine
 10
130.2533902598
 20
132.9835811756
 30
0.0
 11
130.5681903286
 21
132.9835811756
 31
0.0
  0
LINE
  5
33B
330
1F
100
AcDbEntity
  8
0
  6
Continuous
 62
     7
370
    25
100
AcDbLine
 10
130.5422902478
 20
132.9835811756
 30
0.0
 11
130.5422902478
 21
133.1335818521
 31
0.0
  0
LINE
  5
33C
330
1F
100
AcDbEntity
  8
0
  6
Continuous
 62
     7
370
    25
100
AcDbLine
 10
130.1960282398
 20
133.1335818521
 30
0.0
 11
130.5422902478
 21
133.1335818521
 31
0.0
  0
LINE
  5
33D
330
1F
100
AcDbEntity
  8
0
  6
Continuous
 62
     7
370
    25
100
AcDbLine
 10
139.0873294694
 20
128.5306131593
 30
0.0
 11
139.0873294694
 21
128.1835818789
 31
0.0
  0
ELLIPSE
  5
33E
330
1F
100
AcDbEntity
  8
0
  6
Continuous
 62
     7
370
    25
100
AcDbEllipse
 10
137.5336776904
 20
130.3335817308
 30
0.0
 11
0.0
 21
2.400000000000006
 31
0.0
210
0.0
220
0.0
230
1.0
 40
0.9807928339
 41
3.862454376742803
 42
6.283185307179586
  0
LINE
  5
33F
330
1F
100
AcDbEntity
  8
0
  6
Continuous
 62
     7
370
    25
100
AcDbLine
 10
136.8705163149
 20
132.7335825316
 30
0.0
 11
137.5336775927
 21
132.7335825316
 31
0.0
  0
ELLIPSE
  5
340
330
1F
100
AcDbEntity
  8
0
  6
Continuous
 62
     7
370
    25
100
AcDbEllipse
 10
136.8705165004
 20
130.3335817308
 30
0.0
 11
0.0
 21
2.399999999999977
 31
0.0
210
0.0
220
0.0
230
1.0
 40
0.9807928339
 41
0.0
 42
2.314394267360353
  0
LINE
  5
341
330
1F
100
AcDbEntity
  8
0
  6
Continuous
 62
     7
370
    25
100
AcDbLine
 10
135.1379555089
 20
128.1835818789
 30
0.0
 11
135.1379555089
 21
128.7089241795
 31
0.0
  0
LINE
  5
342
330
1F
100
AcDbEntity
  8
0
  6
Continuous
 62
     7
370
    25
100
AcDbLine
 10
142.5607999226
 20
128.1835818789
 30
0.0
 11
142.5607999226
 21
132.9835811756
 31
0.0
  0
ELLIPSE
  5
343
330
1F
100
AcDbEntity
  8
0
  6
Continuous
 62
     7
370
    25
100
AcDbEllipse
 10
133.5162050078
 20
132.1335817308
 30
0.0
 11
0.0
 21
0.2999999999999829
 31
0.0
210
0.0
220
0.0
230
1.0
 40
0.9807928364
 41
4.712388980384704
 42
6.283185307179586
  0
LINE
  5
344
330
1F
100
AcDbEntity
  8
0
  6
Continuous
 62
     7
370
    25
100
AcDbLine
 10
133.5162053255
 20
132.4335811786
 30
0.0
 11
131.1864637209
 21
132.4335811786
 31
0.0
  0
ELLIPSE
  5
345
330
1F
100
AcDbEntity
  8
0
  6
Continuous
 62
     7
370
    25
100
AcDbEllipse
 10
131.186464334
 20
132.1335817308
 30
0.0
 11
0.0
 21
0.2999999999999829
 31
0.0
210
0.0
220
0.0
230
1.0
 40
0.9940242779
 41
0.0
 42
1.570796326794897
  0
LINE
  5
346
330
1F
100
AcDbEntity
  8
0
  6
Continuous
 62
     7
370
    25
100
AcDbLine
 10
130.8882579578
 20
132.1335816882
 30
0.0
 11
130.8882579578
 21
129.2335810266
 31
0.0
  0
ELLIPSE
  5
347
330
1F
100
AcDbEntity
  8
0
  6
Continuous
 62
     7
370
    25
100
AcDbEllipse
 10
131.186464334
 20
129.2335817308
 30
0.0
 11
0.0
 21
0.3000000000000114
 31
0.0
210
0.0
220
0.0
230
1.0
 40
0.9940242779
 41
1.570796326794897
 42
3.141592653589793
  0
LINE
  5
348
330
1F
100
AcDbEntity
  8
0
  6
Continuous
 62
     7
370
    25
100
AcDbLine
 10
133.5162053255
 20
128.9335815362
 30
0.0
 11
131.1864637209
 21
128.9335815362
 31
0.0
  0
ELLIPSE
  5
349
330
1F
100
AcDbEntity
  8
0
  6
Continuous
 62
     7
370
    25
100
AcDbEllipse
 10
133.5162050078
 20
129.2335817308
 30
0.0
 11
0.0
 21
0.3000000000000114
 31
0.0
210
0.0
220
0.0
230
1.0
 40
0.9807928364
 41
3.141592653589793
 42
4.712388980384704
  0
LINE
  5
34A
330
1F
100
AcDbEntity
  8
0
  6
Continuous
 62
     7
370
    25
100
AcDbLine
 10
133.8104427231
 20
129.2335810266
 30
0.0
 11
133.8104427231
 21
132.1335816882
 31
0.0
  0
LINE
  5
34B
330
1F
100
AcDbEntity
  8
0
  6
Continuous
 62
     7
370
    25
100
AcDbLine
 10
135.1379555089
 20
128.1835818789
 30
0.0
 11
130.5681903286
 21
128.1835818789
 31
0.0
  0
LINE
  5
34C
330
1F
100
AcDbEntity
  8
0
  6
Continuous
 62
     7
370
    25
100
AcDbLine
 10
142.5607999226
 20
128.1835818789
 30
0.0
 11
139.0873294694
 21
128.1835818789
 31
0.0
  0
LINE
  5
34D
330
1F
100
AcDbEntity
  8
0
  6
Continuous
 62
     7
370
    25
100
AcDbLine
 10
130.5681903286
 20
132.9835811756
 30
0.0
 11
142.5607999226
 21
132.9835811756
 31
0.0
  0
LINE
  5
34E
330
1F
100
AcDbEntity
  8
0
  6
Continuous
 62
     7
370
    25
100
AcDbLine
 10
142.534881681
 20
132.9835811756
 30
0.0
 11
142.534881681
 21
133.1335818521
 31
0.0
  0
LINE
  5
34F
330
1F
100
AcDbEntity
  8
0
  6
Continuous
 62
     7
370
    25
100
AcDbLine
 10
130.5422902478
 20
133.1335818521
 30
0.0
 11
142.534881681
 21
133.1335818521
 31
0.0
  0
LINE
  5
350
330
1F
100
AcDbEntity
  8
0
  6
Continuous
 62
     7
370
    25
100
AcDbLine
 10
133.8015923647
 20
129.2335810266
 30
0.0
 11
133.8015923647
 21
132.1335816882
 31
0.0
  0
ELLIPSE
  5
351
330
1F
100
AcDbEntity
  8
0
  6
Continuous
 62
     7
370
    25
100
AcDbEllipse
 10
133.507354393
 20
129.2335817308
 30
0.0
 11
0.0
 21
0.3000000000000114
 31
0.0
210
0.0
220
0.0
230
1.0
 40
0.9807928363
 41
3.141592653589793
 42
4.712388980384704
  0
ELLIPSE
  5
352
330
1F
100
AcDbEntity
  8
0
  6
Continuous
 62
     7
370
    25
100
AcDbEllipse
 10
133.507354393
 20
132.1335817308
 30
0.0
 11
0.0
 21
0.2999999999999829
 31
0.0
210
0.0
220
0.0
230
1.0
 40
0.9807928363
 41
4.712388980384704
 42
6.283185307179586
  0
LINE
  5
353
330
1F
100
AcDbEntity
  8
0
  6
Continuous
 62
     7
370
    25
100
AcDbLine
 10
133.8104427231
 20
132.1335816882
 30
0.0
 11
133.8015923647
 21
132.1335816882
 31
0.0
  0
LINE
  5
354
330
1F
100
AcDbEntity
  8
0
  6
Continuous
 62
     7
370
    25
100
AcDbLine
 10
133.8015923647
 20
129.2335810266
 30
0.0
 11
133.8104427231
 21
129.2335810266
 31
0.0
  0
LINE
  5
355
330
1F
100
AcDbEntity
  8
0
  6
Continuous
 62
     7
370
    25
100
AcDbLine
 10
75.0118762625
 20
128.1835818789
 30
0.0
 11
75.0118762625
 21
132.9835811756
 31
0.0
  0
LINE
  5
356
330
1F
100
AcDbEntity
  8
0
  6
Continuous
 62
     7
370
    25
100
AcDbLine
 10
75.1775101198
 20
128.1835818789
 30
0.0
 11
75.0118762625
 21
128.1835818789
 31
0.0
  0
LINE
  5
357
330
1F
100
AcDbEntity
  8
0
  6
Continuous
 62
     7
370
    25
100
AcDbLine
 10
75.0118762625
 20
132.9835811756
 30
0.0
 11
75.1775101198
 21
132.9835811756
 31
0.0
  0
ELLIPSE
  5
358
330
1F
100
AcDbEntity
  8
0
  6
Continuous
 62
     7
370
    25
100
AcDbEllipse
 10
136.7437639508
 20
130.3335817308
 30
0.0
 11
0.0
 21
2.399999999999977
 31
0.0
210
0.0
220
0.0
230
1.0
 40
0.9090389553
 41
2.314394267360353
 42
2.387478576222714
  0
LINE
  5
359
330
1F
100
AcDbEntity
  8
0
  6
Continuous
 62
     7
370
    25
100
AcDbLine
 10
125.7066995276
 20
129.8835808537
 30
0.0
 11
125.7957861198
 21
129.8835808537
 31
0.0
  0
LINE
  5
35A
330
1F
100
AcDbEntity
  8
0
  6
Continuous
 62
     7
370
    25
100
AcDbLine
 10
125.7957861198
 20
131.3835820309
 30
0.0
 11
125.7066995276
 21
131.3835820309
 31
0.0
  0
LINE
  5
35B
330
1F
100
AcDbEntity
  8
0
  6
Continuous
 62
     7
370
    25
100
AcDbLine
 10
75.1052767409
 20
132.9835811756
 30
0.0
 11
75.1052767409
 21
133.1335818521
 31
0.0
  0
LINE
  5
35C
330
1F
100
AcDbEntity
  8
0
  6
Continuous
 62
     7
370
    25
100
AcDbLine
 10
75.1052767409
 20
133.1335818521
 30
0.0
 11
75.2833456171
 21
133.1335818521
 31
0.0
  0
LINE
  5
35D
330
1F
100
AcDbEntity
  8
0
  6
Continuous
 62
     7
370
    25
100
AcDbLine
 10
135.2500820903
 20
128.5842741035
 30
0.0
 11
135.2500820903
 21
128.1835818789
 31
0.0
  0
ELLIPSE
  5
35E
330
1F
100
AcDbEntity
  8
0
  6
Continuous
 62
     7
370
    25
100
AcDbEllipse
 10
137.5248270741
 20
130.3335817308
 30
0.0
 11
0.0
 21
2.400000000000006
 31
0.0
210
0.0
220
0.0
230
1.0
 40
0.9807928339
 41
3.815538992561903
 42
6.283185307179586
  0
LINE
  5
35F
330
1F
100
AcDbEntity
  8
0
  6
Continuous
 62
     7
370
    25
100
AcDbLine
 10
138.9938377214
 20
128.1835818789
 30
0.0
 11
138.9938377214
 21
128.4583052747
 31
0.0
  0
LINE
  5
360
330
1F
100
AcDbEntity
  8
0
  6
Continuous
 62
     7
370
    25
100
AcDbLine
 10
135.2500820903
 20
128.1835818789
 30
0.0
 11
138.9938377214
 21
128.1835818789
 31
0.0
  0
LINE
  5
361
330
1F
100
AcDbEntity
  8
0
  6
Continuous
 62
     7
370
    25
100
AcDbLine
 10
135.1379555089
 20
128.1835818789
 30
0.0
 11
135.2500820903
 21
128.1835818789
 31
0.0
  0
LINE
  5
362
330
1F
100
AcDbEntity
  8
0
  6
Continuous
 62
     7
370
    25
100
AcDbLine
 10
74.9073669685
 20
128.1835818789
 30
0.0
 11
74.9073669685
 21
132.9835811756
 31
0.0
  0
LINE
  5
363
330
1F
100
AcDbEntity
  8
0
  6
Continuous
 62
     7
370
    25
100
AcDbLine
 10
75.0118762625
 20
128.1835818789
 30
0.0
 11
74.9073669685
 21
128.1835818789
 31
0.0
  0
LINE
  5
364
330
1F
100
AcDbEntity
  8
0
  6
Continuous
 62
     7
370
    25
100
AcDbLine
 10
74.9073669685
 20
132.9835811756
 30
0.0
 11
75.0118762625
 21
132.9835811756
 31
0.0
  0
LINE
  5
365
330
1F
100
AcDbEntity
  8
0
  6
Continuous
 62
     7
370
    25
100
AcDbLine
 10
75.0132024658
 20
132.9835811756
 30
0.0
 11
75.0132024658
 21
133.1335818521
 31
0.0
  0
LINE
  5
366
330
1F
100
AcDbEntity
  8
0
  6
Continuous
 62
     7
370
    25
100
AcDbLine
 10
75.0132024658
 20
133.1335818521
 30
0.0
 11
75.1052767409
 21
133.1335818521
 31
0.0
  0
ELLIPSE
  5
367
330
1F
100
AcDbEntity
  8
0
  6
Continuous
 62
     7
370
    25
100
AcDbEllipse
 10
137.3712184968
 20
130.3335817308
 30
0.0
 11
2.60004105801292
 21
0.0
 31
0.0
210
0.0
220
0.0
230
1.0
 40
0.9230623465
 41
5.386335319356808
 42
5.433250703537711
  0
LINE
  5
368
330
1F
100
AcDbEntity
  8
0
  6
Continuous
 62
     7
370
    25
100
AcDbLine
 10
138.9938377214
 20
128.1835818789
 30
0.0
 11
139.0873294694
 21
128.1835818789
 31
0.0
  0
LINE
  5
369
330
1F
100
AcDbEntity
  8
0
  6
Continuous
 62
     7
370
    25
100
AcDbLine
 10
125.7006235791
 20
129.8835808537
 30
0.0
 11
125.7006235791
 21
131.3835820309
 31
0.0
  0
LINE
  5
36A
330
1F
100
AcDbEntity
  8
0
  6
Continuous
 62
     7
370
    25
100
AcDbLine
 10
142.7830446882
 20
128.1835818789
 30
0.0
 11
142.7830446882
 21
132.9835811756
 31
0.0
  0
LINE
  5
36B
330
1F
100
AcDbEntity
  8
0
  6
Continuous
 62
     7
370
    25
100
AcDbLine
 10
142.7830446882
 20
128.1835818789
 30
0.0
 11
142.5607999226
 21
128.1835818789
 31
0.0
  0
LINE
  5
36C
330
1F
100
AcDbEntity
  8
0
  6
Continuous
 62
     7
370
    25
100
AcDbLine
 10
142.5607999226
 20
132.9835811756
 30
0.0
 11
142.7830446882
 21
132.9835811756
 31
0.0
  0
LINE
  5
36D
330
1F
100
AcDbEntity
  8
0
  6
Continuous
 62
     7
370
    25
100
AcDbLine
 10
125.6097190452
 20
132.5835818551
 30
0.0
 11
123.1695048881
 21
132.5835818551
 31
0.0
  0
LINE
  5
36E
330
1F
100
AcDbEntity
  8
0
  6
Continuous
 62
     7
370
    25
100
AcDbLine
 10
123.1695048881
 20
132.9835811756
 30
0.0
 11
125.6097190452
 21
132.9835811756
 31
0.0
  0
LINE
  5
36F
330
1F
100
AcDbEntity
  8
0
  6
Continuous
 62
     7
370
    25
100
AcDbLine
 10
123.1695048881
 20
128.6835810296
 30
0.0
 11
125.6097190452
 21
128.6835810296
 31
0.0
  0
LINE
  5
370
330
1F
100
AcDbEntity
  8
0
  6
Continuous
 62
     7
370
    25
100
AcDbLine
 10
125.6097190452
 20
128.1835818789
 30
0.0
 11
123.1695048881
 21
128.1835818789
 31
0.0
  0
LINE
  5
371
330
1F
100
AcDbEntity
  8
0
  6
Continuous
 62
     7
370
    25
100
AcDbLine
 10
142.6830448581
 20
132.9835811756
 30
0.0
 11
142.6830448581
 21
133.1335818521
 31
0.0
  0
LINE
  5
372
330
1F
100
AcDbEntity
  8
0
  6
Continuous
 62
     7
370
    25
100
AcDbLine
 10
142.534881681
 20
133.1335818521
 30
0.0
 11
142.6830448581
 21
133.1335818521
 31
0.0
  0
LINE
  5
373
330
1F
100
AcDbEntity
  8
0
  6
Continuous
 62
     7
370
    25
100
AcDbLine
 10
123.0725802851
 20
133.1335818521
 30
0.0
 11
125.7006235791
 21
133.1335818521
 31
0.0
  0
LINE
  5
374
330
1F
100
AcDbEntity
  8
0
  6
Continuous
 62
     7
370
    25
100
AcDbLine
 10
142.7830465508
 20
128.1835818789
 30
0.0
 11
142.7830465508
 21
132.9835811756
 31
0.0
  0
LINE
  5
375
330
1F
100
AcDbEntity
  8
0
  6
Continuous
 62
     7
370
    25
100
AcDbLine
 10
142.6830467207
 20
132.9835811756
 30
0.0
 11
142.6830467207
 21
133.1335818521
 31
0.0
  0
LINE
  5
376
330
1F
100
AcDbEntity
  8
0
  6
Continuous
 62
     7
370
    25
100
AcDbLine
 10
74.7435957564
 20
128.1835818789
 30
0.0
 11
74.7435957564
 21
132.9835811756
 31
0.0
  0
LINE
  5
377
330
1F
100
AcDbEntity
  8
0
  6
Continuous
 62
     7
370
    25
100
AcDbLine
 10
74.9073669685
 20
128.1835818789
 30
0.0
 11
74.7435957564
 21
128.1835818789
 31
0.0
  0
LINE
  5
378
330
1F
100
AcDbEntity
  8
0
  6
Continuous
 62
     7
370
    25
100
AcDbLine
 10
74.7435957564
 20
132.9835811756
 30
0.0
 11
74.9073669685
 21
132.9835811756
 31
0.0
  0
LINE
  5
379
330
1F
100
AcDbEntity
  8
0
  6
Continuous
 62
     7
370
    25
100
AcDbLine
 10
74.836884476
 20
132.9835811756
 30
0.0
 11
74.836884476
 21
133.1335818521
 31
0.0
  0
LINE
  5
37A
330
1F
100
AcDbEntity
  8
0
  6
Continuous
 62
     7
370
    25
100
AcDbLine
 10
74.836884476
 20
133.1335818521
 30
0.0
 11
75.0132024658
 21
133.1335818521
 31
0.0
  0
LINE
  5
37B
330
1F
100
AcDbEntity
  8
0
  6
Continuous
 62
     7
370
    25
100
AcDbLine
 10
74.6601939572
 20
128.1835818789
 30
0.0
 11
74.6601939572
 21
132.9835811756
 31
0.0
  0
LINE
  5
37C
330
1F
100
AcDbEntity
  8
0
  6
Continuous
 62
     7
370
    25
100
AcDbLine
 10
74.7435957564
 20
128.1835818789
 30
0.0
 11
74.6601939572
 21
128.1835818789
 31
0.0
  0
LINE
  5
37D
330
1F
100
AcDbEntity
  8
0
  6
Continuous
 62
     7
370
    25
100
AcDbLine
 10
74.6601939572
 20
132.9835811756
 30
0.0
 11
74.7435957564
 21
132.9835811756
 31
0.0
  0
LINE
  5
37E
330
1F
100
AcDbEntity
  8
0
  6
Continuous
 62
     7
370
    25
100
AcDbLine
 10
74.7598007692
 20
132.9835811756
 30
0.0
 11
74.7598007692
 21
133.1335818521
 31
0.0
  0
LINE
  5
37F
330
1F
100
AcDbEntity
  8
0
  6
Continuous
 62
     7
370
    25
100
AcDbLine
 10
74.7598007692
 20
133.1335818521
 30
0.0
 11
74.836884476
 21
133.1335818521
 31
0.0
  0
LINE
  5
380
330
1F
100
AcDbEntity
  8
0
  6
Continuous
 62
     7
370
    25
100
AcDbLine
 10
74.3911460412
 20
128.1835818789
 30
0.0
 11
74.3911460412
 21
132.9835811756
 31
0.0
  0
LINE
  5
381
330
1F
100
AcDbEntity
  8
0
  6
Continuous
 62
     7
370
    25
100
AcDbLine
 10
74.6601939572
 20
128.1835818789
 30
0.0
 11
74.3911460412
 21
128.1835818789
 31
0.0
  0
LINE
  5
382
330
1F
100
AcDbEntity
  8
0
  6
Continuous
 62
     7
370
    25
100
AcDbLine
 10
74.3911460412
 20
132.9835811756
 30
0.0
 11
74.6601939572
 21
132.9835811756
 31
0.0
  0
LINE
  5
383
330
1F
100
AcDbEntity
  8
0
  6
Continuous
 62
     7
370
    25
100
AcDbLine
 10
74.4369373096
 20
132.9835811756
 30
0.0
 11
74.4369373096
 21
133.1335818521
 31
0.0
  0
LINE
  5
384
330
1F
100
AcDbEntity
  8
0
  6
Continuous
 62
     7
370
    25
100
AcDbLine
 10
74.4369373096
 20
133.1335818521
 30
0.0
 11
74.7598007692
 21
133.1335818521
 31
0.0
  0
LINE
  5
385
330
1F
100
AcDbEntity
  8
0
  6
Continuous
 62
     7
370
    25
100
AcDbLine
 10
74.1307482494
 20
128.1835818789
 30
0.0
 11
74.1307482494
 21
132.9835811756
 31
0.0
  0
LINE
  5
386
330
1F
100
AcDbEntity
  8
0
  6
Continuous
 62
     7
370
    25
100
AcDbLine
 10
74.3911460412
 20
128.1835818789
 30
0.0
 11
74.1307482494
 21
128.1835818789
 31
0.0
  0
LINE
  5
387
330
1F
100
AcDbEntity
  8
0
  6
Continuous
 62
     7
370
    25
100
AcDbLine
 10
74.1307482494
 20
132.9835811756
 30
0.0
 11
74.3911460412
 21
132.9835811756
 31
0.0
  0
LINE
  5
388
330
1F
100
AcDbEntity
  8
0
  6
Continuous
 62
     7
370
    25
100
AcDbLine
 10
74.1765395177
 20
132.9835811756
 30
0.0
 11
74.1765395177
 21
133.1335818521
 31
0.0
  0
LINE
  5
389
330
1F
100
AcDbEntity
  8
0
  6
Continuous
 62
     7
370
    25
100
AcDbLine
 10
74.1765395177
 20
133.1335818521
 30
0.0
 11
74.4369373096
 21
133.1335818521
 31
0.0
  0
LINE
  5
38A
330
1F
100
AcDbEntity
  8
0
  6
Continuous
 62
     7
370
    25
100
AcDbLine
 10
73.8605976475
 20
128.1835818789
 30
0.0
 11
73.8605976475
 21
132.9835811756
 31
0.0
  0
LINE
  5
38B
330
1F
100
AcDbEntity
  8
0
  6
Continuous
 62
     7
370
    25
100
AcDbLine
 10
74.1307482494
 20
128.1835818789
 30
0.0
 11
73.8605976475
 21
128.1835818789
 31
0.0
  0
LINE
  5
38C
330
1F
100
AcDbEntity
  8
0
  6
Continuous
 62
     7
370
    25
100
AcDbLine
 10
73.8605976475
 20
132.9835811756
 30
0.0
 11
74.1307482494
 21
132.9835811756
 31
0.0
  0
LINE
  5
38D
330
1F
100
AcDbEntity
  8
0
  6
Continuous
 62
     7
370
    25
100
AcDbLine
 10
73.9604279769
 20
132.9835811756
 30
0.0
 11
73.9604279769
 21
133.1335818521
 31
0.0
  0
LINE
  5
38E
330
1F
100
AcDbEntity
  8
0
  6
Continuous
 62
     7
370
    25
100
AcDbLine
 10
73.9604279769
 20
133.1335818521
 30
0.0
 11
74.1765395177
 21
133.1335818521
 31
0.0
  0
LINE
  5
38F
330
1F
100
AcDbEntity
  8
0
  6
Continuous
 62
     7
370
    25
100
AcDbLine
 10
73.7765476478
 20
128.1835818789
 30
0.0
 11
73.7765476478
 21
132.9835811756
 31
0.0
  0
LINE
  5
390
330
1F
100
AcDbEntity
  8
0
  6
Continuous
 62
     7
370
    25
100
AcDbLine
 10
73.8605976475
 20
128.1835818789
 30
0.0
 11
73.7765476478
 21
128.1835818789
 31
0.0
  0
LINE
  5
391
330
1F
100
AcDbEntity
  8
0
  6
Continuous
 62
     7
370
    25
100
AcDbLine
 10
73.7765476478
 20
132.9835811756
 30
0.0
 11
73.8605976475
 21
132.9835811756
 31
0.0
  0
LINE
  5
392
330
1F
100
AcDbEntity
  8
0
  6
Continuous
 62
     7
370
    25
100
AcDbLine
 10
73.8763705266
 20
132.9835811756
 30
0.0
 11
73.8763705266
 21
133.1335818521
 31
0.0
  0
LINE
  5
393
330
1F
100
AcDbEntity
  8
0
  6
Continuous
 62
     7
370
    25
100
AcDbLine
 10
73.8763705266
 20
133.1335818521
 30
0.0
 11
73.9604279769
 21
133.1335818521
 31
0.0
  0
LINE
  5
394
330
1F
100
AcDbEntity
  8
0
  6
Continuous
 62
     7
370
    25
100
AcDbLine
 10
73.4484315289
 20
128.1835818789
 30
0.0
 11
73.4484315289
 21
132.9835811756
 31
0.0
  0
LINE
  5
395
330
1F
100
AcDbEntity
  8
0
  6
Continuous
 62
     7
370
    25
100
AcDbLine
 10
73.7765476478
 20
128.1835818789
 30
0.0
 11
73.4484315289
 21
128.1835818789
 31
0.0
  0
LINE
  5
396
330
1F
100
AcDbEntity
  8
0
  6
Continuous
 62
     7
370
    25
100
AcDbLine
 10
73.4484315289
 20
132.9835811756
 30
0.0
 11
73.7765476478
 21
132.9835811756
 31
0.0
  0
LINE
  5
397
330
1F
100
AcDbEntity
  8
0
  6
Continuous
 62
     7
370
    25
100
AcDbLine
 10
73.4826371444
 20
132.9835811756
 30
0.0
 11
73.4826371444
 21
133.1335818521
 31
0.0
  0
LINE
  5
398
330
1F
100
AcDbEntity
  8
0
  6
Continuous
 62
     7
370
    25
100
AcDbLine
 10
73.4826371444
 20
133.1335818521
 30
0.0
 11
73.8763705266
 21
133.1335818521
 31
0.0
  0
LINE
  5
399
330
1F
100
AcDbEntity
  8
0
  6
Continuous
 62
     7
370
    25
100
AcDbLine
 10
68.6536625398
 20
128.7086131177
 30
0.0
 11
68.6536625398
 21
128.1835818789
 31
0.0
  0
ELLIPSE
  5
39A
330
1F
100
AcDbEntity
  8
0
  6
Continuous
 62
     7
370
    25
100
AcDbEllipse
 10
66.9683717135
 20
130.3335817308
 30
0.0
 11
0.0
 21
2.400000000000006
 31
0.0
210
0.0
220
0.0
230
1.0
 40
0.9541888941
 41
3.968614243600633
 42
6.283185307179586
  0
LINE
  5
39B
330
1F
100
AcDbEntity
  8
0
  6
Continuous
 62
     7
370
    25
100
AcDbLine
 10
66.3004413617
 20
132.7335825316
 30
0.0
 11
66.9683710111
 21
132.7335825316
 31
0.0
  0
ELLIPSE
  5
39C
330
1F
100
AcDbEntity
  8
0
  6
Continuous
 62
     7
370
    25
100
AcDbEllipse
 10
66.3004394876
 20
130.3335817308
 30
0.0
 11
0.0
 21
2.400000000000006
 31
0.0
210
0.0
220
0.0
230
1.0
 40
0.9541888941
 41
0.0
 42
2.420652874259272
  0
LINE
  5
39D
330
1F
100
AcDbEntity
  8
0
  6
Continuous
 62
     7
370
    25
100
AcDbLine
 10
64.7887930644
 20
128.1835818789
 30
0.0
 11
64.7887930644
 21
128.5307360939
 31
0.0
  0
LINE
  5
39E
330
1F
100
AcDbEntity
  8
0
  6
Continuous
 62
     7
370
    25
100
AcDbLine
 10
61.7151976002
 20
128.1835818789
 30
0.0
 11
61.7151976002
 21
132.9835811756
 31
0.0
  0
ELLIPSE
  5
39F
330
1F
100
AcDbEntity
  8
0
  6
Continuous
 62
     7
370
    25
100
AcDbEllipse
 10
72.498258786
 20
132.1335817308
 30
0.0
 11
0.0
 21
0.2999999999999829
 31
0.0
210
0.0
220
0.0
230
1.0
 40
0.9670370765
 41
4.712388980384703
 42
6.283185307179586
  0
LINE
  5
3A0
330
1F
100
AcDbEntity
  8
0
  6
Continuous
 62
     7
370
    25
100
AcDbLine
 10
72.4982589854
 20
132.4335811786
 30
0.0
 11
70.2316955102
 21
132.4335811786
 31
0.0
  0
ELLIPSE
  5
3A1
330
1F
100
AcDbEntity
  8
0
  6
Continuous
 62
     7
370
    25
100
AcDbEllipse
 10
70.2316977321
 20
132.1335817308
 30
0.0
 11
0.0
 21
0.2999999999999829
 31
0.0
210
0.0
220
0.0
230
1.0
 40
0.9541888965
 41
0.0
 42
1.570796326794897
  0
LINE
  5
3A2
330
1F
100
AcDbEntity
  8
0
  6
Continuous
 62
     7
370
    25
100
AcDbLine
 10
69.9454442037
 20
132.1335816882
 30
0.0
 11
69.9454442037
 21
129.2335810266
 31
0.0
  0
ELLIPSE
  5
3A3
330
1F
100
AcDbEntity
  8
0
  6
Continuous
 62
     7
370
    25
100
AcDbEllipse
 10
70.2316977321
 20
129.2335817308
 30
0.0
 11
0.0
 21
0.3000000000000114
 31
0.0
210
0.0
220
0.0
230
1.0
 40
0.9541888965
 41
1.570796326794897
 42
3.141592653589793
  0
LINE
  5
3A4
330
1F
100
AcDbEntity
  8
0
  6
Continuous
 62
     7
370
    25
100
AcDbLine
 10
72.4982589854
 20
128.9335815362
 30
0.0
 11
70.2316955102
 21
128.9335815362
 31
0.0
  0
ELLIPSE
  5
3A5
330
1F
100
AcDbEntity
  8
0
  6
Continuous
 62
     7
370
    25
100
AcDbEllipse
 10
72.498258786
 20
129.2335817308
 30
0.0
 11
0.0
 21
0.3000000000000114
 31
0.0
210
0.0
220
0.0
230
1.0
 40
0.9670370765
 41
3.141592653589905
 42
4.712388980384703
  0
LINE
  5
3A6
330
1F
100
AcDbEntity
  8
0
  6
Continuous
 62
     7
370
    25
100
AcDbLine
 10
72.7883696926
 20
129.2335810266
 30
0.0
 11
72.7883696926
 21
132.1335816882
 31
0.0
  0
LINE
  5
3A7
330
1F
100
AcDbEntity
  8
0
  6
Continuous
 62
     7
370
    25
100
AcDbLine
 10
64.7887930644
 20
128.1835818789
 30
0.0
 11
61.7151976002
 21
128.1835818789
 31
0.0
  0
LINE
  5
3A8
330
1F
100
AcDbEntity
  8
0
  6
Continuous
 62
     7
370
    25
100
AcDbLine
 10
73.4484315289
 20
128.1835818789
 30
0.0
 11
68.6536625398
 21
128.1835818789
 31
0.0
  0
LINE
  5
3A9
330
1F
100
AcDbEntity
  8
0
  6
Continuous
 62
     7
370
    25
100
AcDbLine
 10
61.7151976002
 20
132.9835811756
 30
0.0
 11
73.4484315289
 21
132.9835811756
 31
0.0
  0
LINE
  5
3AA
330
1F
100
AcDbEntity
  8
0
  6
Continuous
 62
     7
370
    25
100
AcDbLine
 10
61.7493957651
 20
132.9835811756
 30
0.0
 11
61.7493957651
 21
133.1335818521
 31
0.0
  0
LINE
  5
3AB
330
1F
100
AcDbEntity
  8
0
  6
Continuous
 62
     7
370
    25
100
AcDbLine
 10
61.7493957651
 20
133.1335818521
 30
0.0
 11
73.4826371444
 21
133.1335818521
 31
0.0
  0
LINE
  5
3AC
330
1F
100
AcDbEntity
  8
0
  6
Continuous
 62
     7
370
    25
100
AcDbLine
 10
69.9630722774
 20
132.1335816882
 30
0.0
 11
69.9630722774
 21
129.2335810266
 31
0.0
  0
ELLIPSE
  5
3AD
330
1F
100
AcDbEntity
  8
0
  6
Continuous
 62
     7
370
    25
100
AcDbEllipse
 10
70.2493304288
 20
132.1335817308
 30
0.0
 11
0.0
 21
0.2999999999999829
 31
0.0
210
0.0
220
0.0
230
1.0
 40
0.9541888965
 41
0.0
 42
1.570796326794897
  0
ELLIPSE
  5
3AE
330
1F
100
AcDbEntity
  8
0
  6
Continuous
 62
     7
370
    25
100
AcDbEllipse
 10
70.2493304288
 20
129.2335817308
 30
0.0
 11
0.0
 21
0.3000000000000114
 31
0.0
210
0.0
220
0.0
230
1.0
 40
0.9541888965
 41
1.570796326794897
 42
3.141592653589793
  0
LINE
  5
3AF
330
1F
100
AcDbEntity
  8
0
  6
Continuous
 62
     7
370
    25
100
AcDbLine
 10
69.9630722774
 20
132.1335816882
 30
0.0
 11
69.9454442037
 21
132.1335816882
 31
0.0
  0
LINE
  5
3B0
330
1F
100
AcDbEntity
  8
0
  6
Continuous
 62
     7
370
    25
100
AcDbLine
 10
69.9454442037
 20
129.2335810266
 30
0.0
 11
69.9630722774
 21
129.2335810266
 31
0.0
  0
ELLIPSE
  5
3B1
330
1F
100
AcDbEntity
  8
0
  6
Continuous
 62
     7
370
    25
100
AcDbEllipse
 10
67.2209905692
 20
130.3335817308
 30
0.0
 11
0.0
 21
2.400000000000006
 31
0.0
210
0.0
220
0.0
230
1.0
 40
0.8111595753
 41
3.895580575974692
 42
3.968614243600632
  0
LINE
  5
3B2
330
1F
100
AcDbEntity
  8
0
  6
Continuous
 62
     7
370
    25
100
AcDbLine
 10
64.8887947572
 20
128.4584002696
 30
0.0
 11
64.8887947572
 21
128.1835818789
 31
0.0
  0
ELLIPSE
  5
3B3
330
1F
100
AcDbEntity
  8
0
  6
Continuous
 62
     7
370
    25
100
AcDbEllipse
 10
66.3180721856
 20
130.3335817308
 30
0.0
 11
0.0
 21
2.400000000000006
 31
0.0
210
0.0
220
0.0
230
1.0
 40
0.9541888941
 41
0.0
 42
2.467583440482201
  0
LINE
  5
3B4
330
1F
100
AcDbEntity
  8
0
  6
Continuous
 62
     7
370
    25
100
AcDbLine
 10
68.553660847
 20
128.1835818789
 30
0.0
 11
68.553660847
 21
128.5840654872
 31
0.0
  0
LINE
  5
3B5
330
1F
100
AcDbEntity
  8
0
  6
Continuous
 62
     7
370
    25
100
AcDbLine
 10
64.8887947572
 20
128.1835818789
 30
0.0
 11
68.553660847
 21
128.1835818789
 31
0.0
  0
LINE
  5
3B6
330
1F
100
AcDbEntity
  8
0
  6
Continuous
 62
     7
370
    25
100
AcDbLine
 10
68.553660847
 20
128.1835818789
 30
0.0
 11
68.6536625398
 21
128.1835818789
 31
0.0
  0
ELLIPSE
  5
3B7
330
1F
100
AcDbEntity
  8
0
  6
Continuous
 62
     7
370
    25
100
AcDbEllipse
 10
66.6240430423
 20
130.3335817308
 30
0.0
 11
2.780294233630698
 21
0.0
 31
0.0
210
0.0
220
0.0
230
1.0
 40
0.86321799
 41
3.991449201054188
 42
4.038379767277109
  0
LINE
  5
3B8
330
1F
100
AcDbEntity
  8
0
  6
Continuous
 62
     7
370
    25
100
AcDbLine
 10
64.7887930644
 20
128.1835818789
 30
0.0
 11
64.8887947572
 21
128.1835818789
 31
0.0
  0
LINE
  5
3B9
330
1F
100
AcDbEntity
  8
0
  6
Continuous
 62
     7
370
    25
100
AcDbLine
 10
61.5189418567
 20
128.1835818789
 30
0.0
 11
61.5189418567
 21
132.9835811756
 31
0.0
  0
LINE
  5
3BA
330
1F
100
AcDbEntity
  8
0
  6
Continuous
 62
     7
370
    25
100
AcDbLine
 10
61.7151976002
 20
128.1835818789
 30
0.0
 11
61.5189418567
 21
128.1835818789
 31
0.0
  0
LINE
  5
3BB
330
1F
100
AcDbEntity
  8
0
  6
Continuous
 62
     7
370
    25
100
AcDbLine
 10
61.5189418567
 20
132.9835811756
 30
0.0
 11
61.7151976002
 21
132.9835811756
 31
0.0
  0
LINE
  5
3BC
330
1F
100
AcDbEntity
  8
0
  6
Continuous
 62
     7
370
    25
100
AcDbLine
 10
61.6185635699
 20
132.9835811756
 30
0.0
 11
61.6185635699
 21
133.1335818521
 31
0.0
  0
LINE
  5
3BD
330
1F
100
AcDbEntity
  8
0
  6
Continuous
 62
     7
370
    25
100
AcDbLine
 10
61.6185635699
 20
133.1335818521
 30
0.0
 11
61.7493957651
 21
133.1335818521
 31
0.0
  0
LINE
  5
3BE
330
1F
100
AcDbEntity
  8
0
  6
Continuous
 62
     7
370
    25
100
AcDbLine
 10
61.417375542
 20
128.1835818789
 30
0.0
 11
61.417375542
 21
132.9835811756
 31
0.0
  0
LINE
  5
3BF
330
1F
100
AcDbEntity
  8
0
  6
Continuous
 62
     7
370
    25
100
AcDbLine
 10
61.5189418567
 20
128.1835818789
 30
0.0
 11
61.417375542
 21
128.1835818789
 31
0.0
  0
LINE
  5
3C0
330
1F
100
AcDbEntity
  8
0
  6
Continuous
 62
     7
370
    25
100
AcDbLine
 10
61.417375542
 20
132.9835811756
 30
0.0
 11
61.5189418567
 21
132.9835811756
 31
0.0
  0
LINE
  5
3C1
330
1F
100
AcDbEntity
  8
0
  6
Continuous
 62
     7
370
    25
100
AcDbLine
 10
61.5232110394
 20
132.9835811756
 30
0.0
 11
61.5232110394
 21
133.1335818521
 31
0.0
  0
LINE
  5
3C2
330
1F
100
AcDbEntity
  8
0
  6
Continuous
 62
     7
370
    25
100
AcDbLine
 10
61.5232110394
 20
133.1335818521
 30
0.0
 11
61.6185635699
 21
133.1335818521
 31
0.0
  0
LINE
  5
3C3
330
1F
100
AcDbEntity
  8
0
  6
Continuous
 62
     7
370
    25
100
AcDbLine
 10
145.3132502174
 20
132.9835811756
 30
0.0
 11
145.3132502174
 21
130.5935820691
 31
0.0
  0
LINE
  5
3C4
330
1F
100
AcDbEntity
  8
0
  6
Continuous
 62
     7
370
    25
100
AcDbLine
 10
145.3132502174
 20
130.5735809855
 30
0.0
 11
145.3132502174
 21
130.5935820691
 31
0.0
  0
LINE
  5
3C5
330
1F
100
AcDbEntity
  8
0
  6
Continuous
 62
     7
370
    25
100
AcDbLine
 10
145.3132502174
 20
128.1835818789
 30
0.0
 11
145.3132502174
 21
130.5735809855
 31
0.0
  0
LINE
  5
3C6
330
1F
100
AcDbEntity
  8
0
  6
Continuous
 62
     7
370
    25
100
AcDbLine
 10
145.3132502174
 20
128.1835818789
 30
0.0
 11
142.7830474821
 21
128.1835818789
 31
0.0
  0
LINE
  5
3C7
330
1F
100
AcDbEntity
  8
0
  6
Continuous
 62
     7
370
    25
100
AcDbLine
 10
142.7830474821
 20
132.9835811756
 30
0.0
 11
145.3132502174
 21
132.9835811756
 31
0.0
  0
LINE
  5
3C8
330
1F
100
AcDbEntity
  8
0
  6
Continuous
 62
     7
370
    25
100
AcDbLine
 10
145.2958191184
 20
132.9835811756
 30
0.0
 11
145.2958191184
 21
133.1335818521
 31
0.0
  0
LINE
  5
3C9
330
1F
100
AcDbEntity
  8
0
  6
Continuous
 62
     7
370
    25
100
AcDbLine
 10
142.683047652
 20
133.1335818521
 30
0.0
 11
145.2958191184
 21
133.1335818521
 31
0.0
  0
LINE
  5
3CA
330
1F
100
AcDbEntity
  8
0
  6
Continuous
 62
     7
370
    25
100
AcDbLine
 10
145.6965006327
 20
130.5735809855
 30
0.0
 11
145.3132502174
 21
130.5735809855
 31
0.0
  0
LINE
  5
3CB
330
1F
100
AcDbEntity
  8
0
  6
Continuous
 62
     7
370
    25
100
AcDbLine
 10
145.6965006327
 20
130.5935820691
 30
0.0
 11
145.6965006327
 21
130.5735809855
 31
0.0
  0
LINE
  5
3CC
330
1F
100
AcDbEntity
  8
0
  6
Continuous
 62
     7
370
    25
100
AcDbLine
 10
145.3132502174
 20
130.5935820691
 30
0.0
 11
145.6965006327
 21
130.5935820691
 31
0.0
  0
LINE
  5
3CD
330
1F
100
AcDbEntity
  8
0
  6
Continuous
 62
     7
370
    25
100
AcDbLine
 10
151.6788868138
 20
132.7335825316
 30
0.0
 11
152.3419007098
 21
132.7335825316
 31
0.0
  0
ELLIPSE
  5
3CE
330
1F
100
AcDbEntity
  8
0
  6
Continuous
 62
     7
370
    25
100
AcDbEllipse
 10
151.6787164581
 20
130.3335817308
 30
0.0
 11
0.0
 21
2.400000000000006
 31
0.0
210
0.0
220
0.0
230
1.0
 40
0.9808267891
 41
0.0
 42
1.462249964467089
  0
LINE
  5
3CF
330
1F
100
AcDbEntity
  8
0
  6
Continuous
 62
     7
370
    25
100
AcDbLine
 10
148.6187071677
 20
130.5935820691
 30
0.0
 11
148.6187071677
 21
132.1335816882
 31
0.0
  0
ELLIPSE
  5
3D0
330
1F
100
AcDbEntity
  8
0
  6
Continuous
 62
     7
370
    25
100
AcDbEllipse
 10
148.3244591573
 20
132.1335817308
 30
0.0
 11
0.0
 21
0.2999999999999829
 31
0.0
210
0.0
220
0.0
230
1.0
 40
0.9808267916
 41
4.712388980384704
 42
6.283185307179586
  0
LINE
  5
3D1
330
1F
100
AcDbEntity
  8
0
  6
Continuous
 62
     7
370
    25
100
AcDbLine
 10
148.3244591763
 20
132.4335811786
 30
0.0
 11
145.9946866052
 21
132.4335811786
 31
0.0
  0
ELLIPSE
  5
3D2
330
1F
100
AcDbEntity
  8
0
  6
Continuous
 62
     7
370
    25
100
AcDbEllipse
 10
145.9946866473
 20
132.1335817308
 30
0.0
 11
0.0
 21
0.2999999999999829
 31
0.0
210
0.0
220
0.0
230
1.0
 40
0.9940336515
 41
0.0
 42
1.570796326794897
  0
LINE
  5
3D3
330
1F
100
AcDbEntity
  8
0
  6
Continuous
 62
     7
370
    25
100
AcDbLine
 10
145.6964766511
 20
132.1335816882
 30
0.0
 11
145.6964766511
 21
130.5935820691
 31
0.0
  0
LINE
  5
3D4
330
1F
100
AcDbEntity
  8
0
  6
Continuous
 62
     7
370
    25
100
AcDbLine
 10
157.2204361109
 20
130.5935820691
 30
0.0
 11
157.2204361109
 21
132.9835811756
 31
0.0
  0
ELLIPSE
  5
3D5
330
1F
100
AcDbEntity
  8
0
  6
Continuous
 62
     7
370
    25
100
AcDbEllipse
 10
152.3420709256
 20
130.3335817308
 30
0.0
 11
0.0
 21
2.399999999999977
 31
0.0
210
0.0
220
0.0
230
1.0
 40
0.9808267891
 41
4.820935342712501
 42
6.283181863591167
  0
LINE
  5
3D6
330
1F
100
AcDbEntity
  8
0
  6
Continuous
 62
     7
370
    25
100
AcDbLine
 10
157.2204361109
 20
132.9835811756
 30
0.0
 11
145.3132502174
 21
132.9835811756
 31
0.0
  0
LINE
  5
3D7
330
1F
100
AcDbEntity
  8
0
  6
Continuous
 62
     7
370
    25
100
AcDbLine
 10
148.6187071677
 20
129.2335810266
 30
0.0
 11
148.6187071677
 21
130.5735809855
 31
0.0
  0
ELLIPSE
  5
3D8
330
1F
100
AcDbEntity
  8
0
  6
Continuous
 62
     7
370
    25
100
AcDbEllipse
 10
151.6787164581
 20
130.3335817308
 30
0.0
 11
0.0
 21
2.400000000000006
 31
0.0
210
0.0
220
0.0
230
1.0
 40
0.9808267891
 41
1.470628905633335
 42
2.314571063578799
  0
LINE
  5
3D9
330
1F
100
AcDbEntity
  8
0
  6
Continuous
 62
     7
370
    25
100
AcDbLine
 10
149.9463769395
 20
128.1835818789
 30
0.0
 11
149.9463769395
 21
128.7086131177
 31
0.0
  0
LINE
  5
3DA
330
1F
100
AcDbEntity
  8
0
  6
Continuous
 62
     7
370
    25
100
AcDbLine
 10
145.6964766511
 20
130.5735809855
 30
0.0
 11
145.6964766511
 21
129.2335810266
 31
0.0
  0
ELLIPSE
  5
3DB
330
1F
100
AcDbEntity
  8
0
  6
Continuous
 62
     7
370
    25
100
AcDbEllipse
 10
145.9946866473
 20
129.2335817308
 30
0.0
 11
0.0
 21
0.3000000000000114
 31
0.0
210
0.0
220
0.0
230
1.0
 40
0.9940336515
 41
1.570796326794897
 42
3.141592653589793
  0
LINE
  5
3DC
330
1F
100
AcDbEntity
  8
0
  6
Continuous
 62
     7
370
    25
100
AcDbLine
 10
148.3244591763
 20
128.9335815362
 30
0.0
 11
145.9946866052
 21
128.9335815362
 31
0.0
  0
ELLIPSE
  5
3DD
330
1F
100
AcDbEntity
  8
0
  6
Continuous
 62
     7
370
    25
100
AcDbEllipse
 10
148.3244591573
 20
129.2335817308
 30
0.0
 11
0.0
 21
0.3000000000000114
 31
0.0
210
0.0
220
0.0
230
1.0
 40
0.9808267916
 41
3.141592653589793
 42
4.712388980384704
  0
LINE
  5
3DE
330
1F
100
AcDbEntity
  8
0
  6
Continuous
 62
     7
370
    25
100
AcDbLine
 10
145.3132502174
 20
128.1835818789
 30
0.0
 11
149.9463769395
 21
128.1835818789
 31
0.0
  0
LINE
  5
3DF
330
1F
100
AcDbEntity
  8
0
  6
Continuous
 62
     7
370
    25
100
AcDbLine
 10
157.1948135642
 20
132.9835811756
 30
0.0
 11
157.1948135642
 21
133.1335818521
 31
0.0
  0
LINE
  5
3E0
330
1F
100
AcDbEntity
  8
0
  6
Continuous
 62
     7
370
    25
100
AcDbLine
 10
145.2958191184
 20
133.1335818521
 30
0.0
 11
157.1948135642
 21
133.1335818521
 31
0.0
  0
ELLIPSE
  5
3E1
330
1F
100
AcDbEntity
  8
0
  6
Continuous
 62
     7
370
    25
100
AcDbEllipse
 10
148.3156976329
 20
132.1335817308
 30
0.0
 11
0.0
 21
0.2999999999999829
 31
0.0
210
0.0
220
0.0
230
1.0
 40
0.9808267916
 41
4.712388980384704
 42
6.283185307179586
  0
LINE
  5
3E2
330
1F
100
AcDbEntity
  8
0
  6
Continuous
 62
     7
370
    25
100
AcDbLine
 10
148.6099456924
 20
129.2335810266
 30
0.0
 11
148.6099456924
 21
132.1335816882
 31
0.0
  0
ELLIPSE
  5
3E3
330
1F
100
AcDbEntity
  8
0
  6
Continuous
 62
     7
370
    25
100
AcDbEllipse
 10
148.3156976329
 20
129.2335817308
 30
0.0
 11
0.0
 21
0.3000000000000114
 31
0.0
210
0.0
220
0.0
230
1.0
 40
0.9808267916
 41
3.141592653589793
 42
4.712388980384704
  0
LINE
  5
3E4
330
1F
100
AcDbEntity
  8
0
  6
Continuous
 62
     7
370
    25
100
AcDbLine
 10
148.6187071677
 20
132.1335816882
 30
0.0
 11
148.6099456924
 21
132.1335816882
 31
0.0
  0
LINE
  5
3E5
330
1F
100
AcDbEntity
  8
0
  6
Continuous
 62
     7
370
    25
100
AcDbLine
 10
148.6099456924
 20
129.2335810266
 30
0.0
 11
148.6187071677
 21
129.2335810266
 31
0.0
  0
LINE
  5
3E6
330
1F
100
AcDbEntity
  8
0
  6
Continuous
 62
     7
370
    25
100
AcDbLine
 10
149.3367904731
 20
130.5735809855
 30
0.0
 11
148.6187957015
 21
130.5735809855
 31
0.0
  0
LINE
  5
3E7
330
1F
100
AcDbEntity
  8
0
  6
Continuous
 62
     7
370
    25
100
AcDbLine
 10
148.6187957015
 20
130.5735809855
 30
0.0
 11
148.6187957015
 21
130.5935820691
 31
0.0
  0
LINE
  5
3E8
330
1F
100
AcDbEntity
  8
0
  6
Continuous
 62
     7
370
    25
100
AcDbLine
 10
148.6187957015
 20
130.5935820691
 30
0.0
 11
149.338845058
 21
130.5935820691
 31
0.0
  0
ELLIPSE
  5
3E9
330
1F
100
AcDbEntity
  8
0
  6
Continuous
 62
     7
370
    25
100
AcDbEllipse
 10
151.6789752771
 20
130.3335817308
 30
0.0
 11
0.0
 21
2.400000000000006
 31
0.0
210
0.0
220
0.0
230
1.0
 40
0.9808267891
 41
1.462249964467089
 42
1.470628905633334
  0
LINE
  5
3EA
330
1F
100
AcDbEntity
  8
0
  6
Continuous
 62
     7
370
    25
100
AcDbLine
 10
148.6187957015
 20
130.5735809855
 30
0.0
 11
148.6187071677
 21
130.5735809855
 31
0.0
  0
LINE
  5
3EB
330
1F
100
AcDbEntity
  8
0
  6
Continuous
 62
     7
370
    25
100
AcDbLine
 10
148.6187071677
 20
130.5935820691
 30
0.0
 11
148.6187957015
 21
130.5935820691
 31
0.0
  0
ELLIPSE
  5
3EC
330
1F
100
AcDbEntity
  8
0
  6
Continuous
 62
     7
370
    25
100
AcDbEllipse
 10
151.6789752771
 20
130.3335817308
 30
0.0
 11
0.0
 21
2.400000000000006
 31
0.0
210
0.0
220
0.0
230
1.0
 40
0.9808267891
 41
1.470628905633334
 42
2.314571063578808
  0
ELLIPSE
  5
3ED
330
1F
100
AcDbEntity
  8
0
  6
Continuous
 62
     7
370
    25
100
AcDbEllipse
 10
151.6789752771
 20
130.3335817308
 30
0.0
 11
0.0
 21
2.400000000000006
 31
0.0
210
0.0
220
0.0
230
1.0
 40
0.9808267891
 41
0.0
 42
1.462249964467089
  0
LINE
  5
3EE
330
1F
100
AcDbEntity
  8
0
  6
Continuous
 62
     7
370
    25
100
AcDbLine
 10
151.6787163818
 20
132.7335825316
 30
0.0
 11
151.6789752895
 21
132.7335825316
 31
0.0
  0
ELLIPSE
  5
3EF
330
1F
100
AcDbEntity
  8
0
  6
Continuous
 62
     7
370
    25
100
AcDbEllipse
 10
151.5521833677
 20
130.3335817308
 30
0.0
 11
0.0
 21
2.400000000000006
 31
0.0
210
0.0
220
0.0
230
1.0
 40
0.9090389553
 41
2.314571063578807
 42
2.387604731204802
  0
LINE
  5
3F0
330
1F
100
AcDbEntity
  8
0
  6
Continuous
 62
     7
370
    25
100
AcDbLine
 10
149.9463769395
 20
128.7086131177
 30
0.0
 11
149.9466357308
 21
128.7086131177
 31
0.0
  0
ELLIPSE
  5
3F1
330
1F
100
AcDbEntity
  8
0
  6
Continuous
 62
     7
370
    25
100
AcDbEllipse
 10
152.3333093998
 20
130.3335817308
 30
0.0
 11
0.0
 21
2.399999999999977
 31
0.0
210
0.0
220
0.0
230
1.0
 40
0.9808267891
 41
3.815601866697327
 42
6.283185307179586
  0
LINE
  5
3F2
330
1F
100
AcDbEntity
  8
0
  6
Continuous
 62
     7
370
    25
100
AcDbLine
 10
153.802486453
 20
128.1835818789
 30
0.0
 11
153.802486453
 21
128.4584002696
 31
0.0
  0
LINE
  5
3F3
330
1F
100
AcDbEntity
  8
0
  6
Continuous
 62
     7
370
    25
100
AcDbLine
 10
150.0587023583
 20
128.5840654872
 30
0.0
 11
150.0587023583
 21
128.1835818789
 31
0.0
  0
LINE
  5
3F4
330
1F
100
AcDbEntity
  8
0
  6
Continuous
 62
     7
370
    25
100
AcDbLine
 10
150.0587023583
 20
128.1835818789
 30
0.0
 11
153.802486453
 21
128.1835818789
 31
0.0
  0
LINE
  5
3F5
330
1F
100
AcDbEntity
  8
0
  6
Continuous
 62
     7
370
    25
100
AcDbLine
 10
149.9466357308
 20
128.1835818789
 30
0.0
 11
149.9466357308
 21
128.7086131177
 31
0.0
  0
LINE
  5
3F6
330
1F
100
AcDbEntity
  8
0
  6
Continuous
 62
     7
370
    25
100
AcDbLine
 10
149.9466357308
 20
128.1835818789
 30
0.0
 11
150.0587023583
 21
128.1835818789
 31
0.0
  0
LINE
  5
3F7
330
1F
100
AcDbEntity
  8
0
  6
Continuous
 62
     7
370
    25
100
AcDbLine
 10
149.9463769395
 20
128.1835818789
 30
0.0
 11
149.9466357308
 21
128.1835818789
 31
0.0
  0
LINE
  5
3F8
330
1F
100
AcDbEntity
  8
0
  6
Continuous
 62
     7
370
    25
100
AcDbLine
 10
154.6822896598
 20
130.5935820691
 30
0.0
 11
154.6822011841
 21
130.5935820691
 31
0.0
  0
ELLIPSE
  5
3F9
330
1F
100
AcDbEntity
  8
0
  6
Continuous
 62
     7
370
    25
100
AcDbEllipse
 10
152.3421594258
 20
130.3335817308
 30
0.0
 11
0.0
 21
2.399999999999977
 31
0.0
210
0.0
220
0.0
230
1.0
 40
0.9808267891
 41
4.812556401546256
 42
4.820935342712501
  0
LINE
  5
3FA
330
1F
100
AcDbEntity
  8
0
  6
Continuous
 62
     7
370
    25
100
AcDbLine
 10
154.6842556817
 20
130.5735809855
 30
0.0
 11
154.6843441574
 21
130.5735809855
 31
0.0
  0
ELLIPSE
  5
3FB
330
1F
100
AcDbEntity
  8
0
  6
Continuous
 62
     7
370
    25
100
AcDbEllipse
 10
152.3420709256
 20
130.3335817308
 30
0.0
 11
0.0
 21
2.399999999999977
 31
0.0
210
0.0
220
0.0
230
1.0
 40
0.9808267891
 41
3.862436118062599
 42
4.812556401546254
  0
LINE
  5
3FC
330
1F
100
AcDbEntity
  8
0
  6
Continuous
 62
     7
370
    25
100
AcDbLine
 10
153.8957442466
 20
128.5305834246
 30
0.0
 11
153.8960030656
 21
128.530736
 31
0.0
  0
ELLIPSE
  5
3FD
330
1F
100
AcDbEntity
  8
0
  6
Continuous
 62
     7
370
    25
100
AcDbEllipse
 10
152.1797395919
 20
130.3335817308
 30
0.0
 11
2.600041058013857
 21
0.0
 31
0.0
210
0.0
220
0.0
230
1.0
 40
0.9230623465
 41
5.386398193492222
 42
5.433328759715137
  0
LINE
  5
3FE
330
1F
100
AcDbEntity
  8
0
  6
Continuous
 62
     7
370
    25
100
AcDbLine
 10
153.896002881
 20
128.5307360939
 30
0.0
 11
153.896002881
 21
128.1835818789
 31
0.0
  0
LINE
  5
3FF
330
1F
100
AcDbEntity
  8
0
  6
Continuous
 62
     7
370
    25
100
AcDbLine
 10
153.802486453
 20
128.1835818789
 30
0.0
 11
153.896002881
 21
128.1835818789
 31
0.0
  0
LINE
  5
400
330
1F
100
AcDbEntity
  8
0
  6
Continuous
 62
     7
370
    25
100
AcDbLine
 10
157.2204361109
 20
128.1835818789
 30
0.0
 11
157.2204361109
 21
130.5735809855
 31
0.0
  0
LINE
  5
401
330
1F
100
AcDbEntity
  8
0
  6
Continuous
 62
     7
370
    25
100
AcDbLine
 10
153.896002881
 20
128.1835818789
 30
0.0
 11
157.2204361109
 21
128.1835818789
 31
0.0
  0
LINE
  5
402
330
1F
100
AcDbEntity
  8
0
  6
Continuous
 62
     7
370
    25
100
AcDbLine
 10
61.2517416848
 20
128.1835818789
 30
0.0
 11
61.2517416848
 21
132.9835811756
 31
0.0
  0
LINE
  5
403
330
1F
100
AcDbEntity
  8
0
  6
Continuous
 62
     7
370
    25
100
AcDbLine
 10
61.417375542
 20
128.1835818789
 30
0.0
 11
61.2517416848
 21
128.1835818789
 31
0.0
  0
LINE
  5
404
330
1F
100
AcDbEntity
  8
0
  6
Continuous
 62
     7
370
    25
100
AcDbLine
 10
61.2517416848
 20
132.9835811756
 30
0.0
 11
61.417375542
 21
132.9835811756
 31
0.0
  0
LINE
  5
405
330
1F
100
AcDbEntity
  8
0
  6
Continuous
 62
     7
370
    25
100
AcDbLine
 10
61.3451421631
 20
132.9835811756
 30
0.0
 11
61.3451421631
 21
133.1335818521
 31
0.0
  0
LINE
  5
406
330
1F
100
AcDbEntity
  8
0
  6
Continuous
 62
     7
370
    25
100
AcDbLine
 10
61.3451421631
 20
133.1335818521
 30
0.0
 11
61.5232110394
 21
133.1335818521
 31
0.0
  0
LINE
  5
407
330
1F
100
AcDbEntity
  8
0
  6
Continuous
 62
     7
370
    25
100
AcDbLine
 10
157.2206950185
 20
130.5735809855
 30
0.0
 11
154.6843441574
 21
130.5735809855
 31
0.0
  0
LINE
  5
408
330
1F
100
AcDbEntity
  8
0
  6
Continuous
 62
     7
370
    25
100
AcDbLine
 10
157.2206950185
 20
130.5735809855
 30
0.0
 11
157.2206950185
 21
130.5935820691
 31
0.0
  0
LINE
  5
409
330
1F
100
AcDbEntity
  8
0
  6
Continuous
 62
     7
370
    25
100
AcDbLine
 10
154.6822896598
 20
130.5935820691
 30
0.0
 11
157.2206950185
 21
130.5935820691
 31
0.0
  0
LINE
  5
40A
330
1F
100
AcDbEntity
  8
0
  6
Continuous
 62
     7
370
    25
100
AcDbLine
 10
61.1472323907
 20
128.1835818789
 30
0.0
 11
61.1472323907
 21
132.9835811756
 31
0.0
  0
LINE
  5
40B
330
1F
100
AcDbEntity
  8
0
  6
Continuous
 62
     7
370
    25
100
AcDbLine
 10
61.2517416848
 20
128.1835818789
 30
0.0
 11
61.1472323907
 21
128.1835818789
 31
0.0
  0
LINE
  5
40C
330
1F
100
AcDbEntity
  8
0
  6
Continuous
 62
     7
370
    25
100
AcDbLine
 10
61.1472323907
 20
132.9835811756
 30
0.0
 11
61.2517416848
 21
132.9835811756
 31
0.0
  0
LINE
  5
40D
330
1F
100
AcDbEntity
  8
0
  6
Continuous
 62
     7
370
    25
100
AcDbLine
 10
61.2530678881
 20
132.9835811756
 30
0.0
 11
61.2530678881
 21
133.1335818521
 31
0.0
  0
LINE
  5
40E
330
1F
100
AcDbEntity
  8
0
  6
Continuous
 62
     7
370
    25
100
AcDbLine
 10
61.2530678881
 20
133.1335818521
 30
0.0
 11
61.3451421631
 21
133.1335818521
 31
0.0
  0
LINE
  5
40F
330
1F
100
AcDbEntity
  8
0
  6
Continuous
 62
     7
370
    25
100
AcDbLine
 10
157.2206950185
 20
128.1835818789
 30
0.0
 11
157.2206950185
 21
130.5735809855
 31
0.0
  0
LINE
  5
410
330
1F
100
AcDbEntity
  8
0
  6
Continuous
 62
     7
370
    25
100
AcDbLine
 10
157.2206950185
 20
130.5935820691
 30
0.0
 11
157.2206950185
 21
132.9835811756
 31
0.0
  0
LINE
  5
411
330
1F
100
AcDbEntity
  8
0
  6
Continuous
 62
     7
370
    25
100
AcDbLine
 10
157.5912859661
 20
128.1835818789
 30
0.0
 11
157.5912859661
 21
132.9835811756
 31
0.0
  0
LINE
  5
412
330
1F
100
AcDbEntity
  8
0
  6
Continuous
 62
     7
370
    25
100
AcDbLine
 10
157.5912859661
 20
128.1835818789
 30
0.0
 11
157.2206950185
 21
128.1835818789
 31
0.0
  0
LINE
  5
413
330
1F
100
AcDbEntity
  8
0
  6
Continuous
 62
     7
370
    25
100
AcDbLine
 10
157.2206950185
 20
132.9835811756
 30
0.0
 11
157.5912859661
 21
132.9835811756
 31
0.0
  0
LINE
  5
414
330
1F
100
AcDbEntity
  8
0
  6
Continuous
 62
     7
370
    25
100
AcDbLine
 10
157.2204361109
 20
132.9835811756
 30
0.0
 11
157.2206950185
 21
132.9835811756
 31
0.0
  0
LINE
  5
415
330
1F
100
AcDbEntity
  8
0
  6
Continuous
 62
     7
370
    25
100
AcDbLine
 10
157.2204361109
 20
128.1835818789
 30
0.0
 11
157.2206950185
 21
128.1835818789
 31
0.0
  0
LINE
  5
416
330
1F
100
AcDbEntity
  8
0
  6
Continuous
 62
     7
370
    25
100
AcDbLine
 10
157.491286136
 20
132.9835811756
 30
0.0
 11
157.491286136
 21
133.1335818521
 31
0.0
  0
LINE
  5
417
330
1F
100
AcDbEntity
  8
0
  6
Continuous
 62
     7
370
    25
100
AcDbLine
 10
157.1948135642
 20
133.1335818521
 30
0.0
 11
157.491286136
 21
133.1335818521
 31
0.0
  0
LINE
  5
418
330
1F
100
AcDbEntity
  8
0
  6
Continuous
 62
     7
370
    25
100
AcDbLine
 10
157.5912878288
 20
128.1835818789
 30
0.0
 11
157.5912878288
 21
132.9835811756
 31
0.0
  0
LINE
  5
419
330
1F
100
AcDbEntity
  8
0
  6
Continuous
 62
     7
370
    25
100
AcDbLine
 10
157.4912879986
 20
132.9835811756
 30
0.0
 11
157.4912879986
 21
133.1335818521
 31
0.0
  0
LINE
  5
41A
330
1F
100
AcDbEntity
  8
0
  6
Continuous
 62
     7
370
    25
100
AcDbLine
 10
60.9834611786
 20
128.1835818789
 30
0.0
 11
60.9834611786
 21
132.9835811756
 31
0.0
  0
LINE
  5
41B
330
1F
100
AcDbEntity
  8
0
  6
Continuous
 62
     7
370
    25
100
AcDbLine
 10
61.1472323907
 20
128.1835818789
 30
0.0
 11
60.9834611786
 21
128.1835818789
 31
0.0
  0
LINE
  5
41C
330
1F
100
AcDbEntity
  8
0
  6
Continuous
 62
     7
370
    25
100
AcDbLine
 10
60.9834611786
 20
132.9835811756
 30
0.0
 11
61.1472323907
 21
132.9835811756
 31
0.0
  0
LINE
  5
41D
330
1F
100
AcDbEntity
  8
0
  6
Continuous
 62
     7
370
    25
100
AcDbLine
 10
61.0767498983
 20
132.9835811756
 30
0.0
 11
61.0767498983
 21
133.1335818521
 31
0.0
  0
LINE
  5
41E
330
1F
100
AcDbEntity
  8
0
  6
Continuous
 62
     7
370
    25
100
AcDbLine
 10
61.0767498983
 20
133.1335818521
 30
0.0
 11
61.2530678881
 21
133.1335818521
 31
0.0
  0
LINE
  5
41F
330
1F
100
AcDbEntity
  8
0
  6
Continuous
 62
     7
370
    25
100
AcDbLine
 10
60.8808592332
 20
128.1835818789
 30
0.0
 11
60.8808592332
 21
132.9835811756
 31
0.0
  0
LINE
  5
420
330
1F
100
AcDbEntity
  8
0
  6
Continuous
 62
     7
370
    25
100
AcDbLine
 10
60.9834611786
 20
128.1835818789
 30
0.0
 11
60.8808592332
 21
128.1835818789
 31
0.0
  0
LINE
  5
421
330
1F
100
AcDbEntity
  8
0
  6
Continuous
 62
     7
370
    25
100
AcDbLine
 10
60.8808592332
 20
132.9835811756
 30
0.0
 11
60.9834611786
 21
132.9835811756
 31
0.0
  0
LINE
  5
422
330
1F
100
AcDbEntity
  8
0
  6
Continuous
 62
     7
370
    25
100
AcDbLine
 10
60.9804585946
 20
132.9835811756
 30
0.0
 11
60.9804585946
 21
133.1335818521
 31
0.0
  0
LINE
  5
423
330
1F
100
AcDbEntity
  8
0
  6
Continuous
 62
     7
370
    25
100
AcDbLine
 10
60.9804585946
 20
133.1335818521
 30
0.0
 11
61.0767498983
 21
133.1335818521
 31
0.0
  0
LINE
  5
424
330
1F
100
AcDbEntity
  8
0
  6
Continuous
 62
     7
370
    25
100
AcDbLine
 10
60.8788848294
 20
128.1835818789
 30
0.0
 11
60.8788848294
 21
132.9835811756
 31
0.0
  0
LINE
  5
425
330
1F
100
AcDbEntity
  8
0
  6
Continuous
 62
     7
370
    25
100
AcDbLine
 10
60.8808592332
 20
128.1835818789
 30
0.0
 11
60.8788848294
 21
128.1835818789
 31
0.0
  0
LINE
  5
426
330
1F
100
AcDbEntity
  8
0
  6
Continuous
 62
     7
370
    25
100
AcDbLine
 10
60.8788848294
 20
132.9835811756
 30
0.0
 11
60.8808592332
 21
132.9835811756
 31
0.0
  0
LINE
  5
427
330
1F
100
AcDbEntity
  8
0
  6
Continuous
 62
     7
370
    25
100
AcDbLine
 10
60.9788865221
 20
132.9835811756
 30
0.0
 11
60.9788865221
 21
133.1335818521
 31
0.0
  0
LINE
  5
428
330
1F
100
AcDbEntity
  8
0
  6
Continuous
 62
     7
370
    25
100
AcDbLine
 10
60.9788865221
 20
133.1335818521
 30
0.0
 11
60.9804585946
 21
133.1335818521
 31
0.0
  0
LINE
  5
429
330
1F
100
AcDbEntity
  8
0
  6
Continuous
 62
     7
370
    25
100
AcDbLine
 10
60.3311702979
 20
128.1835818789
 30
0.0
 11
60.3311702979
 21
132.9835811756
 31
0.0
  0
LINE
  5
42A
330
1F
100
AcDbEntity
  8
0
  6
Continuous
 62
     7
370
    25
100
AcDbLine
 10
60.8788848294
 20
128.1835818789
 30
0.0
 11
60.3311702979
 21
128.1835818789
 31
0.0
  0
LINE
  5
42B
330
1F
100
AcDbEntity
  8
0
  6
Continuous
 62
     7
370
    25
100
AcDbLine
 10
60.3311702979
 20
132.9835811756
 30
0.0
 11
60.8788848294
 21
132.9835811756
 31
0.0
  0
LINE
  5
42C
330
1F
100
AcDbEntity
  8
0
  6
Continuous
 62
     7
370
    25
100
AcDbLine
 10
60.4311645401
 20
132.9835811756
 30
0.0
 11
60.4311645401
 21
133.1335818521
 31
0.0
  0
LINE
  5
42D
330
1F
100
AcDbEntity
  8
0
  6
Continuous
 62
     7
370
    25
100
AcDbLine
 10
60.4311645401
 20
133.1335818521
 30
0.0
 11
60.9788865221
 21
133.1335818521
 31
0.0
  0
ENDSEC
  0
SECTION
  2
OBJECTS
  0
DICTIONARY
  5
C
330
0
100
AcDbDictionary
281
     1
  3
ACAD_GROUP
350
D
  3
ACAD_LAYOUT
350
1A
  3
ACAD_MLINESTYLE
350
17
  3
ACAD_PLOTSETTINGS
350
19
  3
ACAD_PLOTSTYLENAME
350
E
  3
ACAD_SCALELIST
350
47
  0
DICTIONARY
  5
D
102
{ACAD_REACTORS
330
C
102
}
330
C
100
AcDbDictionary
281
     1
  0
DICTIONARY
  5
1A
102
{ACAD_REACTORS
330
C
102
}
330
C
100
AcDbDictionary
281
     1
  3
Layout1
350
1E
  3
Layout2
350
26
  3
Model
350
22
  0
DICTIONARY
  5
17
102
{ACAD_REACTORS
330
C
102
}
330
C
100
AcDbDictionary
281
     1
  3
Standard
350
18
  0
DICTIONARY
  5
19
102
{ACAD_REACTORS
330
C
102
}
330
C
100
AcDbDictionary
281
     1
  0
ACDBDICTIONARYWDFLT
  5
E
102
{ACAD_REACTORS
330
C
102
}
330
C
100
AcDbDictionary
281
     1
  3
Normal
350
F
100
AcDbDictionaryWithDefault
340
F
  0
DICTIONARY
  5
47
102
{ACAD_REACTORS
330
C
102
}
330
C
100
AcDbDictionary
281
     1
  3
A0
350
48
  3
A1
350
49
  3
A2
350
4A
  3
A3
350
4B
  3
A4
350
4C
  3
A5
350
4D
  3
A6
350
4E
  3
A7
350
4F
  3
A8
350
50
  3
A9
350
51
  3
B0
350
52
  3
B1
350
53
  3
B2
350
54
  3
B3
350
55
  3
B4
350
56
  3
B5
350
57
  3
B6
350
58
  3
B7
350
59
  3
B8
350
5A
  3
B9
350
5B
  3
C0
350
5C
  3
C1
350
5D
  3
C2
350
5E
  3
C3
350
5F
  3
C4
350
60
  3
C5
350
61
  3
C6
350
62
  3
C7
350
63
  3
C8
350
64
  3
C9
350
65
  3
D0
350
66
  3
D1
350
67
  3
D2
350
68
  0
LAYOUT
  5
1E
102
{ACAD_REACTORS
330
1A
102
}
330
1A
100
AcDbPlotSettings
  1

  2
none_device
  4

  6

 40
0.0
 41
0.0
 42
0.0
 43
0.0
 44
0.0
 45
0.0
 46
0.0
 47
0.0
 48
0.0
 49
0.0
140
0.0
141
0.0
142
1.0
143
1.0
 70
   688
 72
     1
 73
     0
 74
     5
  7

 75
    16
147
1.0
148
0.0
149
0.0
100
AcDbLayout
  1
Layout1
 70
     1
 71
     1
 10
0.0
 20
0.0
 11
420.0
 21
297.0
 12
0.0
 22
0.0
 32
0.0
 14
1.0000000000E+20
 24
1.0000000000E+20
 34
1.0000000000E+20
 15
-1.0000000000E+20
 25
-1.0000000000E+20
 35
-1.0000000000E+20
146
0.0
 13
0.0
 23
0.0
 33
0.0
 16
1.0
 26
0.0
 36
0.0
 17
0.0
 27
1.0
 37
0.0
 76
     0
330
1B
  0
LAYOUT
  5
26
102
{ACAD_REACTORS
330
1A
102
}
330
1A
100
AcDbPlotSettings
  1

  2
none_device
  4

  6

 40
0.0
 41
0.0
 42
0.0
 43
0.0
 44
0.0
 45
0.0
 46
0.0
 47
0.0
 48
0.0
 49
0.0
140
0.0
141
0.0
142
1.0
143
1.0
 70
   688
 72
     1
 73
     0
 74
     5
  7

 75
    16
147
1.0
148
0.0
149
0.0
100
AcDbLayout
  1
Layout2
 70
     1
 71
     2
 10
0.0
 20
0.0
 11
0.0
 21
0.0
 12
0.0
 22
0.0
 32
0.0
 14
0.0
 24
0.0
 34
0.0
 15
0.0
 25
0.0
 35
0.0
146
0.0
 13
0.0
 23
0.0
 33
0.0
 16
1.0
 26
0.0
 36
0.0
 17
0.0
 27
1.0
 37
0.0
 76
     0
330
23
  0
LAYOUT
  5
22
102
{ACAD_REACTORS
330
1A
102
}
330
1A
100
AcDbPlotSettings
  1

  2
none_device
  4
Letter_(8.50_x_11.00_Inches)
  6

 40
6.35
 41
6.35
 42
6.35000508
 43
6.35000508
 44
215.9
 45
279.4
 46
0.0
 47
0.0
 48
0.0
 49
0.0
140
0.0
141
0.0
142
1.0
143
1.0
 70
  1712
 72
     1
 73
     0
 74
     0
  7

 75
     0
147
1.0
148
0.0
149
0.0
100
AcDbLayout
  1
Model
 70
     1
 71
     0
 10
0.0
 20
0.0
 11
210.0
 21
297.0
 12
0.0
 22
0.0
 32
0.0
 14
0.0
 24
0.0
 34
0.0
 15
210.0
 25
297.0
 35
0.0
146
0.0
 13
0.0
 23
0.0
 33
0.0
 16
1.0
 26
0.0
 36
0.0
 17
0.0
 27
1.0
 37
0.0
 76
     0
330
1F
331
29
  0
MLINESTYLE
  5
18
102
{ACAD_REACTORS
330
17
102
}
330
17
100
AcDbMlineStyle
  2
Standard
 70
     0
  3

 62
   256
 51
90.0
 52
90.0
 71
     2
 49
0.5
 62
   256
  6
BYLAYER
 49
-0.5
 62
   256
  6
BYLAYER
  0
ACDBPLACEHOLDER
  5
F
102
{ACAD_REACTORS
330
E
102
}
330
E
  0
SCALE
  5
48
102
{ACAD_REACTORS
330
47
102
}
330
47
100
AcDbScale
 70
     0
300
1:1
140
1.0
141
1.0
290
     1
  0
SCALE
  5
49
102
{ACAD_REACTORS
330
47
102
}
330
47
100
AcDbScale
 70
     0
300
1:2
140
1.0
141
2.0
290
     0
  0
SCALE
  5
4A
102
{ACAD_REACTORS
330
47
102
}
330
47
100
AcDbScale
 70
     0
300
1:4
140
1.0
141
4.0
290
     0
  0
SCALE
  5
4B
102
{ACAD_REACTORS
330
47
102
}
330
47
100
AcDbScale
 70
     0
300
1:5
140
1.0
141
5.0
290
     0
  0
SCALE
  5
4C
102
{ACAD_REACTORS
330
47
102
}
330
47
100
AcDbScale
 70
     0
300
1:8
140
1.0
141
8.0
290
     0
  0
SCALE
  5
4D
102
{ACAD_REACTORS
330
47
102
}
330
47
100
AcDbScale
 70
     0
300
1:10
140
1.0
141
10.0
290
     0
  0
SCALE
  5
4E
102
{ACAD_REACTORS
330
47
102
}
330
47
100
AcDbScale
 70
     0
300
1:16
140
1.0
141
16.0
290
     0
  0
SCALE
  5
4F
102
{ACAD_REACTORS
330
47
102
}
330
47
100
AcDbScale
 70
     0
300
1:20
140
1.0
141
20.0
290
     0
  0
SCALE
  5
50
102
{ACAD_REACTORS
330
47
102
}
330
47
100
AcDbScale
 70
     0
300
1:30
140
1.0
141
30.0
290
     0
  0
SCALE
  5
51
102
{ACAD_REACTORS
330
47
102
}
330
47
100
AcDbScale
 70
     0
300
1:40
140
1.0
141
40.0
290
     0
  0
SCALE
  5
52
102
{ACAD_REACTORS
330
47
102
}
330
47
100
AcDbScale
 70
     0
300
1:50
140
1.0
141
50.0
290
     0
  0
SCALE
  5
53
102
{ACAD_REACTORS
330
47
102
}
330
47
100
AcDbScale
 70
     0
300
1:100
140
1.0
141
100.0
290
     0
  0
SCALE
  5
54
102
{ACAD_REACTORS
330
47
102
}
330
47
100
AcDbScale
 70
     0
300
2:1
140
2.0
141
1.0
290
     0
  0
SCALE
  5
55
102
{ACAD_REACTORS
330
47
102
}
330
47
100
AcDbScale
 70
     0
300
4:1
140
4.0
141
1.0
290
     0
  0
SCALE
  5
56
102
{ACAD_REACTORS
330
47
102
}
330
47
100
AcDbScale
 70
     0
300
8:1
140
8.0
141
1.0
290
     0
  0
SCALE
  5
57
102
{ACAD_REACTORS
330
47
102
}
330
47
100
AcDbScale
 70
     0
300
10:1
140
10.0
141
1.0
290
     0
  0
SCALE
  5
58
102
{ACAD_REACTORS
330
47
102
}
330
47
100
AcDbScale
 70
     0
300
100:1
140
100.0
141
1.0
290
     0
  0
SCALE
  5
59
102
{ACAD_REACTORS
330
47
102
}
330
47
100
AcDbScale
 70
     0
300
1/128" = 1'-0"
140
0.0078125
141
12.0
290
     0
  0
SCALE
  5
5A
102
{ACAD_REACTORS
330
47
102
}
330
47
100
AcDbScale
 70
     0
300
1/64" = 1'-0"
140
0.015625
141
12.0
290
     0
  0
SCALE
  5
5B
102
{ACAD_REACTORS
330
47
102
}
330
47
100
AcDbScale
 70
     0
300
1/32" = 1'-0"
140
0.03125
141
12.0
290
     0
  0
SCALE
  5
5C
102
{ACAD_REACTORS
330
47
102
}
330
47
100
AcDbScale
 70
     0
300
1/16" = 1'-0"
140
0.0625
141
12.0
290
     0
  0
SCALE
  5
5D
102
{ACAD_REACTORS
330
47
102
}
330
47
100
AcDbScale
 70
     0
300
3/32" = 1'-0"
140
0.09375
141
12.0
290
     0
  0
SCALE
  5
5E
102
{ACAD_REACTORS
330
47
102
}
330
47
100
AcDbScale
 70
     0
300
1/8" = 1'-0"
140
0.125
141
12.0
290
     0
  0
SCALE
  5
5F
102
{ACAD_REACTORS
330
47
102
}
330
47
100
AcDbScale
 70
     0
300
3/16" = 1'-0"
140
0.1875
141
12.0
290
     0
  0
SCALE
  5
60
102
{ACAD_REACTORS
330
47
102
}
330
47
100
AcDbScale
 70
     0
300
1/4" = 1'-0"
140
0.25
141
12.0
290
     0
  0
SCALE
  5
61
102
{ACAD_REACTORS
330
47
102
}
330
47
100
AcDbScale
 70
     0
300
3/8" = 1'-0"
140
0.375
141
12.0
290
     0
  0
SCALE
  5
62
102
{ACAD_REACTORS
330
47
102
}
330
47
100
AcDbScale
 70
     0
300
1/2" = 1'-0"
140
0.5
141
12.0
290
     0
  0
SCALE
  5
63
102
{ACAD_REACTORS
330
47
102
}
330
47
100
AcDbScale
 70
     0
300
3/4" = 1'-0"
140
0.75
141
12.0
290
     0
  0
SCALE
  5
64
102
{ACAD_REACTORS
330
47
102
}
330
47
100
AcDbScale
 70
     0
300
1" = 1'-0"
140
1.0
141
12.0
290
     0
  0
SCALE
  5
65
102
{ACAD_REACTORS
330
47
102
}
330
47
100
AcDbScale
 70
     0
300
1-1/2" = 1'-0"
140
1.5
141
12.0
290
     0
  0
SCALE
  5
66
102
{ACAD_REACTORS
330
47
102
}
330
47
100
AcDbScale
 70
     0
300
3" = 1'-0"
140
3.0
141
12.0
290
     0
  0
SCALE
  5
67
102
{ACAD_REACTORS
330
47
102
}
330
47
100
AcDbScale
 70
     0
300
6" = 1'-0"
140
6.0
141
12.0
290
     0
  0
SCALE
  5
68
102
{ACAD_REACTORS
330
47
102
}
330
47
100
AcDbScale
 70
     0
300
1'-0" = 1'-0"
140
12.0
141
12.0
290
     0
  0
ENDSEC
  0
EOF
